ISO-10303-21;
HEADER;
FILE_DESCRIPTION( ( 'STEP AP214' ), '1' );
FILE_NAME( '//goodhand-server/Shared Folders/GoodHand Data/Kipp CAD/K0391/K0391.06X30.stp', '2020-12-07T10:16:35', ( '' ), ( '' ), ' ', 'PARTsolutions', ' ' );
FILE_SCHEMA( ( 'AUTOMOTIVE_DESIGN { 1 0 10303 214 1 1 1 1 }' ) );
ENDSEC;
DATA;
#1 = MECHANICAL_DESIGN_GEOMETRIC_PRESENTATION_REPRESENTATION( ' ', ( #10, #11, #12, #13, #14, #15, #16, #17, #18, #19, #20, #21, #22 ), #6 );
#2 = PRODUCT_DEFINITION_CONTEXT( '', #23, 'design' );
#3 = APPLICATION_PROTOCOL_DEFINITION( 'international standard', 'automotive_design', 2001, #23 );
#4 = PRODUCT_CATEGORY_RELATIONSHIP( 'NONE', 'NONE', #24, #25 );
#5 = SHAPE_DEFINITION_REPRESENTATION( #26, #27 );
#6 =  ( GEOMETRIC_REPRESENTATION_CONTEXT( 3 )GLOBAL_UNCERTAINTY_ASSIGNED_CONTEXT( ( #30 ) )GLOBAL_UNIT_ASSIGNED_CONTEXT( ( #32, #33, #34 ) )REPRESENTATION_CONTEXT( 'NONE', 'WORKSPACE' ) );
#10 = STYLED_ITEM( '', ( #36 ), #37 );
#11 = STYLED_ITEM( '', ( #38 ), #39 );
#12 = STYLED_ITEM( '', ( #40 ), #41 );
#13 = STYLED_ITEM( '', ( #42 ), #43 );
#14 = STYLED_ITEM( '', ( #44 ), #45 );
#15 = STYLED_ITEM( '', ( #46 ), #47 );
#16 = STYLED_ITEM( '', ( #48 ), #49 );
#17 = STYLED_ITEM( '', ( #50 ), #51 );
#18 = STYLED_ITEM( '', ( #52 ), #53 );
#19 = STYLED_ITEM( '', ( #54 ), #55 );
#20 = STYLED_ITEM( '', ( #56 ), #57 );
#21 = STYLED_ITEM( '', ( #58 ), #59 );
#22 = STYLED_ITEM( '', ( #60 ), #61 );
#23 = APPLICATION_CONTEXT( 'core data for automotive mechanical design processes' );
#24 = PRODUCT_CATEGORY( 'part', 'NONE' );
#25 = PRODUCT_RELATED_PRODUCT_CATEGORY( 'detail', ' ', ( #62 ) );
#26 = PRODUCT_DEFINITION_SHAPE( 'NONE', 'NONE', #63 );
#27 = ADVANCED_BREP_SHAPE_REPRESENTATION( '_K0391.06X30', ( #64, #65 ), #6 );
#30 = UNCERTAINTY_MEASURE_WITH_UNIT( LENGTH_MEASURE( 0.00100000000000000 ), #32, '', '' );
#32 =  ( CONVERSION_BASED_UNIT( 'MILLIMETRE', #68 )LENGTH_UNIT(  )NAMED_UNIT( #71 ) );
#33 =  ( NAMED_UNIT( #73 )PLANE_ANGLE_UNIT(  )SI_UNIT( $, .RADIAN. ) );
#34 =  ( NAMED_UNIT( #73 )SI_UNIT( $, .STERADIAN. )SOLID_ANGLE_UNIT(  ) );
#36 = PRESENTATION_STYLE_ASSIGNMENT( ( #79 ) );
#37 = ADVANCED_FACE( '', ( #80 ), #81, .T. );
#38 = PRESENTATION_STYLE_ASSIGNMENT( ( #82 ) );
#39 = ADVANCED_FACE( '', ( #83, #84 ), #85, .T. );
#40 = PRESENTATION_STYLE_ASSIGNMENT( ( #86 ) );
#41 = ADVANCED_FACE( '', ( #87 ), #88, .T. );
#42 = PRESENTATION_STYLE_ASSIGNMENT( ( #89 ) );
#43 = ADVANCED_FACE( '', ( #90, #91 ), #92, .T. );
#44 = PRESENTATION_STYLE_ASSIGNMENT( ( #93 ) );
#45 = ADVANCED_FACE( '', ( #94 ), #95, .T. );
#46 = PRESENTATION_STYLE_ASSIGNMENT( ( #96 ) );
#47 = ADVANCED_FACE( '', ( #97, #98 ), #99, .T. );
#48 = PRESENTATION_STYLE_ASSIGNMENT( ( #100 ) );
#49 = ADVANCED_FACE( '', ( #101 ), #102, .T. );
#50 = PRESENTATION_STYLE_ASSIGNMENT( ( #103 ) );
#51 = ADVANCED_FACE( '', ( #104, #105 ), #106, .T. );
#52 = PRESENTATION_STYLE_ASSIGNMENT( ( #107 ) );
#53 = ADVANCED_FACE( '', ( #108, #109 ), #110, .T. );
#54 = PRESENTATION_STYLE_ASSIGNMENT( ( #111 ) );
#55 = ADVANCED_FACE( '', ( #112, #113 ), #114, .F. );
#56 = PRESENTATION_STYLE_ASSIGNMENT( ( #115 ) );
#57 = ADVANCED_FACE( '', ( #116 ), #117, .T. );
#58 = PRESENTATION_STYLE_ASSIGNMENT( ( #118 ) );
#59 = ADVANCED_FACE( '', ( #119 ), #120, .F. );
#60 = PRESENTATION_STYLE_ASSIGNMENT( ( #121 ) );
#61 = ADVANCED_FACE( '', ( #122 ), #123, .T. );
#62 = PRODUCT( '_K0391.06X30', '_K0391.06X30', 'PART-_K0391.06X30-DESC', ( #124 ) );
#63 = PRODUCT_DEFINITION( 'NONE', 'NONE', #125, #2 );
#64 = MANIFOLD_SOLID_BREP( '_K0391.06X30', #126 );
#65 = AXIS2_PLACEMENT_3D( '', #127, #128, #129 );
#68 = LENGTH_MEASURE_WITH_UNIT( LENGTH_MEASURE( 1.00000000000000 ), #130 );
#71 = DIMENSIONAL_EXPONENTS( 1.00000000000000, 0.000000000000000, 0.000000000000000, 0.000000000000000, 0.000000000000000, 0.000000000000000, 0.000000000000000 );
#73 = DIMENSIONAL_EXPONENTS( 0.000000000000000, 0.000000000000000, 0.000000000000000, 0.000000000000000, 0.000000000000000, 0.000000000000000, 0.000000000000000 );
#79 = SURFACE_STYLE_USAGE( .BOTH., #131 );
#80 = FACE_OUTER_BOUND( '', #132, .T. );
#81 = PLANE( '', #133 );
#82 = SURFACE_STYLE_USAGE( .BOTH., #134 );
#83 = FACE_BOUND( '', #135, .T. );
#84 = FACE_OUTER_BOUND( '', #136, .T. );
#85 = CONICAL_SURFACE( '', #137, 3.00000000000000, 0.805803494100000 );
#86 = SURFACE_STYLE_USAGE( .BOTH., #138 );
#87 = FACE_OUTER_BOUND( '', #139, .T. );
#88 = PLANE( '', #140 );
#89 = SURFACE_STYLE_USAGE( .BOTH., #141 );
#90 = FACE_BOUND( '', #142, .T. );
#91 = FACE_OUTER_BOUND( '', #143, .T. );
#92 = SPHERICAL_SURFACE( '', #144, 2.25000000000000 );
#93 = SURFACE_STYLE_USAGE( .BOTH., #145 );
#94 = FACE_OUTER_BOUND( '', #146, .T. );
#95 = PLANE( '', #147 );
#96 = SURFACE_STYLE_USAGE( .BOTH., #148 );
#97 = FACE_OUTER_BOUND( '', #149, .T. );
#98 = FACE_OUTER_BOUND( '', #150, .T. );
#99 = CYLINDRICAL_SURFACE( '', #151, 3.00000000000000 );
#100 = SURFACE_STYLE_USAGE( .BOTH., #152 );
#101 = FACE_OUTER_BOUND( '', #153, .T. );
#102 = PLANE( '', #154 );
#103 = SURFACE_STYLE_USAGE( .BOTH., #155 );
#104 = FACE_OUTER_BOUND( '', #156, .T. );
#105 = FACE_BOUND( '', #157, .T. );
#106 = CONICAL_SURFACE( '', #158, 2.38650000000000, 0.785398163400000 );
#107 = SURFACE_STYLE_USAGE( .BOTH., #159 );
#108 = FACE_OUTER_BOUND( '', #160, .T. );
#109 = FACE_OUTER_BOUND( '', #161, .T. );
#110 = CYLINDRICAL_SURFACE( '', #162, 1.75000000000000 );
#111 = SURFACE_STYLE_USAGE( .BOTH., #163 );
#112 = FACE_OUTER_BOUND( '', #164, .T. );
#113 = FACE_BOUND( '', #165, .T. );
#114 = PLANE( '', #166 );
#115 = SURFACE_STYLE_USAGE( .BOTH., #167 );
#116 = FACE_OUTER_BOUND( '', #168, .T. );
#117 = PLANE( '', #169 );
#118 = SURFACE_STYLE_USAGE( .BOTH., #170 );
#119 = FACE_OUTER_BOUND( '', #171, .T. );
#120 = PLANE( '', #172 );
#121 = SURFACE_STYLE_USAGE( .BOTH., #173 );
#122 = FACE_OUTER_BOUND( '', #174, .T. );
#123 = PLANE( '', #175 );
#124 = PRODUCT_CONTEXT( '', #23, 'mechanical' );
#125 = PRODUCT_DEFINITION_FORMATION_WITH_SPECIFIED_SOURCE( ' ', 'NONE', #62, .NOT_KNOWN. );
#126 = CLOSED_SHELL( '', ( #51, #55, #41, #45, #37, #43, #53, #39, #47, #57, #49, #61, #59 ) );
#127 = CARTESIAN_POINT( '', ( 0.000000000000000, 0.000000000000000, 0.000000000000000 ) );
#128 = DIRECTION( '', ( 0.000000000000000, 0.000000000000000, 1.00000000000000 ) );
#129 = DIRECTION( '', ( 1.00000000000000, 0.000000000000000, 0.000000000000000 ) );
#130 =  ( LENGTH_UNIT(  )NAMED_UNIT( #71 )SI_UNIT( .MILLI., .METRE. ) );
#131 = SURFACE_SIDE_STYLE( '', ( #177 ) );
#132 = EDGE_LOOP( '', ( #178, #179, #180, #181 ) );
#133 = AXIS2_PLACEMENT_3D( '', #182, #183, #184 );
#134 = SURFACE_SIDE_STYLE( '', ( #185 ) );
#135 = EDGE_LOOP( '', ( #186 ) );
#136 = EDGE_LOOP( '', ( #187 ) );
#137 = AXIS2_PLACEMENT_3D( '', #188, #189, #190 );
#138 = SURFACE_SIDE_STYLE( '', ( #191 ) );
#139 = EDGE_LOOP( '', ( #192, #193, #194, #195 ) );
#140 = AXIS2_PLACEMENT_3D( '', #196, #197, #198 );
#141 = SURFACE_SIDE_STYLE( '', ( #199 ) );
#142 = VERTEX_LOOP( '', #200 );
#143 = EDGE_LOOP( '', ( #201 ) );
#144 = AXIS2_PLACEMENT_3D( '', #202, #203, #204 );
#145 = SURFACE_SIDE_STYLE( '', ( #205 ) );
#146 = EDGE_LOOP( '', ( #206, #207, #208, #209 ) );
#147 = AXIS2_PLACEMENT_3D( '', #210, #211, #212 );
#148 = SURFACE_SIDE_STYLE( '', ( #213 ) );
#149 = EDGE_LOOP( '', ( #214 ) );
#150 = EDGE_LOOP( '', ( #215 ) );
#151 = AXIS2_PLACEMENT_3D( '', #216, #217, #218 );
#152 = SURFACE_SIDE_STYLE( '', ( #219 ) );
#153 = EDGE_LOOP( '', ( #220, #221, #222, #223 ) );
#154 = AXIS2_PLACEMENT_3D( '', #224, #225, #226 );
#155 = SURFACE_SIDE_STYLE( '', ( #227 ) );
#156 = EDGE_LOOP( '', ( #228 ) );
#157 = EDGE_LOOP( '', ( #229 ) );
#158 = AXIS2_PLACEMENT_3D( '', #230, #231, #232 );
#159 = SURFACE_SIDE_STYLE( '', ( #233 ) );
#160 = EDGE_LOOP( '', ( #234 ) );
#161 = EDGE_LOOP( '', ( #235 ) );
#162 = AXIS2_PLACEMENT_3D( '', #236, #237, #238 );
#163 = SURFACE_SIDE_STYLE( '', ( #239 ) );
#164 = EDGE_LOOP( '', ( #240 ) );
#165 = EDGE_LOOP( '', ( #241, #242, #243, #244, #245, #246 ) );
#166 = AXIS2_PLACEMENT_3D( '', #247, #248, #249 );
#167 = SURFACE_SIDE_STYLE( '', ( #250 ) );
#168 = EDGE_LOOP( '', ( #251, #252, #253, #254 ) );
#169 = AXIS2_PLACEMENT_3D( '', #255, #256, #257 );
#170 = SURFACE_SIDE_STYLE( '', ( #258 ) );
#171 = EDGE_LOOP( '', ( #259, #260, #261, #262, #263, #264 ) );
#172 = AXIS2_PLACEMENT_3D( '', #265, #266, #267 );
#173 = SURFACE_SIDE_STYLE( '', ( #268 ) );
#174 = EDGE_LOOP( '', ( #269, #270, #271, #272 ) );
#175 = AXIS2_PLACEMENT_3D( '', #273, #274, #275 );
#177 = SURFACE_STYLE_FILL_AREA( #276 );
#178 = ORIENTED_EDGE( '', *, *, #277, .F. );
#179 = ORIENTED_EDGE( '', *, *, #278, .F. );
#180 = ORIENTED_EDGE( '', *, *, #279, .T. );
#181 = ORIENTED_EDGE( '', *, *, #280, .T. );
#182 = CARTESIAN_POINT( '', ( 3.00000000000000, 0.866025403784439, 1.50000000000000 ) );
#183 = DIRECTION( '', ( 0.000000000000000, 0.000000000000000, -1.00000000000000 ) );
#184 = DIRECTION( '', ( -1.00000000000000, 0.000000000000000, 0.000000000000000 ) );
#185 = SURFACE_STYLE_FILL_AREA( #281 );
#186 = ORIENTED_EDGE( '', *, *, #282, .F. );
#187 = ORIENTED_EDGE( '', *, *, #283, .T. );
#188 = CARTESIAN_POINT( '', ( 24.5000000000000, 0.000000000000000, 0.000000000000000 ) );
#189 = DIRECTION( '', ( -1.00000000000000, 0.000000000000000, -0.000000000000000 ) );
#190 = DIRECTION( '', ( 0.000000000000000, 0.000000000000000, 1.00000000000000 ) );
#191 = SURFACE_STYLE_FILL_AREA( #284 );
#192 = ORIENTED_EDGE( '', *, *, #285, .F. );
#193 = ORIENTED_EDGE( '', *, *, #280, .F. );
#194 = ORIENTED_EDGE( '', *, *, #286, .T. );
#195 = ORIENTED_EDGE( '', *, *, #287, .T. );
#196 = CARTESIAN_POINT( '', ( 3.00000000000000, -0.866025403784439, 1.50000000000000 ) );
#197 = DIRECTION( '', ( 0.000000000000000, 0.866025403784439, -0.500000000000000 ) );
#198 = DIRECTION( '', ( 0.000000000000000, 0.500000000000000, 0.866025403784439 ) );
#199 = SURFACE_STYLE_FILL_AREA( #288 );
#200 = VERTEX_POINT( '', #289 );
#201 = ORIENTED_EDGE( '', *, *, #290, .T. );
#202 = CARTESIAN_POINT( '', ( 27.7500000000000, 0.000000000000000, 0.000000000000000 ) );
#203 = DIRECTION( '', ( 1.00000000000000, 0.000000000000000, 0.000000000000000 ) );
#204 = DIRECTION( '', ( 0.000000000000000, -1.00000000000000, 0.000000000000000 ) );
#205 = SURFACE_STYLE_FILL_AREA( #291 );
#206 = ORIENTED_EDGE( '', *, *, #292, .F. );
#207 = ORIENTED_EDGE( '', *, *, #287, .F. );
#208 = ORIENTED_EDGE( '', *, *, #293, .T. );
#209 = ORIENTED_EDGE( '', *, *, #294, .T. );
#210 = CARTESIAN_POINT( '', ( 3.00000000000000, -1.73205080756888, 0.000000000000000 ) );
#211 = DIRECTION( '', ( -0.000000000000000, 0.866025403784439, 0.500000000000000 ) );
#212 = DIRECTION( '', ( 0.000000000000000, -0.500000000000000, 0.866025403784439 ) );
#213 = SURFACE_STYLE_FILL_AREA( #295 );
#214 = ORIENTED_EDGE( '', *, *, #283, .F. );
#215 = ORIENTED_EDGE( '', *, *, #296, .T. );
#216 = CARTESIAN_POINT( '', ( 30.0000000000000, 0.000000000000000, 0.000000000000000 ) );
#217 = DIRECTION( '', ( -1.00000000000000, -0.000000000000000, 0.000000000000000 ) );
#218 = DIRECTION( '', ( -0.000000000000000, 0.000000000000000, -1.00000000000000 ) );
#219 = SURFACE_STYLE_FILL_AREA( #297 );
#220 = ORIENTED_EDGE( '', *, *, #298, .F. );
#221 = ORIENTED_EDGE( '', *, *, #299, .F. );
#222 = ORIENTED_EDGE( '', *, *, #300, .T. );
#223 = ORIENTED_EDGE( '', *, *, #301, .T. );
#224 = CARTESIAN_POINT( '', ( 3.00000000000000, 0.866025403784439, -1.50000000000000 ) );
#225 = DIRECTION( '', ( 0.000000000000000, -0.866025403784439, 0.500000000000000 ) );
#226 = DIRECTION( '', ( 0.000000000000000, -0.500000000000000, -0.866025403784439 ) );
#227 = SURFACE_STYLE_FILL_AREA( #302 );
#228 = ORIENTED_EDGE( '', *, *, #296, .F. );
#229 = ORIENTED_EDGE( '', *, *, #303, .T. );
#230 = CARTESIAN_POINT( '', ( 0.000000000000000, 0.000000000000000, 0.000000000000000 ) );
#231 = DIRECTION( '', ( 1.00000000000000, -0.000000000000000, -0.000000000000000 ) );
#232 = DIRECTION( '', ( -0.000000000000000, 0.000000000000000, -1.00000000000000 ) );
#233 = SURFACE_STYLE_FILL_AREA( #304 );
#234 = ORIENTED_EDGE( '', *, *, #290, .F. );
#235 = ORIENTED_EDGE( '', *, *, #282, .T. );
#236 = CARTESIAN_POINT( '', ( 30.0000000000000, 0.000000000000000, 0.000000000000000 ) );
#237 = DIRECTION( '', ( -1.00000000000000, -0.000000000000000, 0.000000000000000 ) );
#238 = DIRECTION( '', ( -0.000000000000000, 0.000000000000000, -1.00000000000000 ) );
#239 = SURFACE_STYLE_FILL_AREA( #305 );
#240 = ORIENTED_EDGE( '', *, *, #303, .F. );
#241 = ORIENTED_EDGE( '', *, *, #277, .T. );
#242 = ORIENTED_EDGE( '', *, *, #285, .T. );
#243 = ORIENTED_EDGE( '', *, *, #292, .T. );
#244 = ORIENTED_EDGE( '', *, *, #306, .T. );
#245 = ORIENTED_EDGE( '', *, *, #298, .T. );
#246 = ORIENTED_EDGE( '', *, *, #307, .T. );
#247 = CARTESIAN_POINT( '', ( 0.000000000000000, 0.000000000000000, 0.000000000000000 ) );
#248 = DIRECTION( '', ( 1.00000000000000, 0.000000000000000, -0.000000000000000 ) );
#249 = DIRECTION( '', ( -0.000000000000000, 0.000000000000000, -1.00000000000000 ) );
#250 = SURFACE_STYLE_FILL_AREA( #308 );
#251 = ORIENTED_EDGE( '', *, *, #306, .F. );
#252 = ORIENTED_EDGE( '', *, *, #294, .F. );
#253 = ORIENTED_EDGE( '', *, *, #309, .T. );
#254 = ORIENTED_EDGE( '', *, *, #299, .T. );
#255 = CARTESIAN_POINT( '', ( 3.00000000000000, -0.866025403784439, -1.50000000000000 ) );
#256 = DIRECTION( '', ( 0.000000000000000, 0.000000000000000, 1.00000000000000 ) );
#257 = DIRECTION( '', ( 1.00000000000000, 0.000000000000000, -0.000000000000000 ) );
#258 = SURFACE_STYLE_FILL_AREA( #310 );
#259 = ORIENTED_EDGE( '', *, *, #279, .F. );
#260 = ORIENTED_EDGE( '', *, *, #311, .F. );
#261 = ORIENTED_EDGE( '', *, *, #300, .F. );
#262 = ORIENTED_EDGE( '', *, *, #309, .F. );
#263 = ORIENTED_EDGE( '', *, *, #293, .F. );
#264 = ORIENTED_EDGE( '', *, *, #286, .F. );
#265 = CARTESIAN_POINT( '', ( 3.00000000000000, 0.000000000000000, 0.000000000000000 ) );
#266 = DIRECTION( '', ( 1.00000000000000, 0.000000000000000, 0.000000000000000 ) );
#267 = DIRECTION( '', ( 0.000000000000000, 0.000000000000000, -1.00000000000000 ) );
#268 = SURFACE_STYLE_FILL_AREA( #312 );
#269 = ORIENTED_EDGE( '', *, *, #307, .F. );
#270 = ORIENTED_EDGE( '', *, *, #301, .F. );
#271 = ORIENTED_EDGE( '', *, *, #311, .T. );
#272 = ORIENTED_EDGE( '', *, *, #278, .T. );
#273 = CARTESIAN_POINT( '', ( 3.00000000000000, 1.73205080756888, 0.000000000000000 ) );
#274 = DIRECTION( '', ( 0.000000000000000, -0.866025403784439, -0.500000000000000 ) );
#275 = DIRECTION( '', ( 0.000000000000000, 0.500000000000000, -0.866025403784439 ) );
#276 = FILL_AREA_STYLE( '', ( #313 ) );
#277 = EDGE_CURVE( '', #314, #315, #316, .T. );
#278 = EDGE_CURVE( '', #317, #314, #318, .T. );
#279 = EDGE_CURVE( '', #317, #319, #320, .T. );
#280 = EDGE_CURVE( '', #319, #315, #321, .T. );
#281 = FILL_AREA_STYLE( '', ( #322 ) );
#282 = EDGE_CURVE( '', #323, #323, #324, .T. );
#283 = EDGE_CURVE( '', #325, #325, #326, .T. );
#284 = FILL_AREA_STYLE( '', ( #327 ) );
#285 = EDGE_CURVE( '', #315, #328, #329, .T. );
#286 = EDGE_CURVE( '', #319, #330, #331, .T. );
#287 = EDGE_CURVE( '', #330, #328, #332, .T. );
#288 = FILL_AREA_STYLE( '', ( #333 ) );
#289 = CARTESIAN_POINT( '', ( 30.0000000000000, -1.37772764904077E-16, 0.000000000000000 ) );
#290 = EDGE_CURVE( '', #334, #334, #335, .T. );
#291 = FILL_AREA_STYLE( '', ( #336 ) );
#292 = EDGE_CURVE( '', #328, #337, #338, .T. );
#293 = EDGE_CURVE( '', #330, #339, #340, .T. );
#294 = EDGE_CURVE( '', #339, #337, #341, .T. );
#295 = FILL_AREA_STYLE( '', ( #342 ) );
#296 = EDGE_CURVE( '', #343, #343, #344, .T. );
#297 = FILL_AREA_STYLE( '', ( #345 ) );
#298 = EDGE_CURVE( '', #346, #347, #348, .T. );
#299 = EDGE_CURVE( '', #349, #346, #350, .T. );
#300 = EDGE_CURVE( '', #349, #351, #352, .T. );
#301 = EDGE_CURVE( '', #351, #347, #353, .T. );
#302 = FILL_AREA_STYLE( '', ( #354 ) );
#303 = EDGE_CURVE( '', #355, #355, #356, .T. );
#304 = FILL_AREA_STYLE( '', ( #357 ) );
#305 = FILL_AREA_STYLE( '', ( #358 ) );
#306 = EDGE_CURVE( '', #337, #346, #359, .T. );
#307 = EDGE_CURVE( '', #347, #314, #360, .T. );
#308 = FILL_AREA_STYLE( '', ( #361 ) );
#309 = EDGE_CURVE( '', #339, #349, #362, .T. );
#310 = FILL_AREA_STYLE( '', ( #363 ) );
#311 = EDGE_CURVE( '', #351, #317, #364, .T. );
#312 = FILL_AREA_STYLE( '', ( #365 ) );
#313 = FILL_AREA_STYLE_COLOUR( '', #366 );
#314 = VERTEX_POINT( '', #367 );
#315 = VERTEX_POINT( '', #368 );
#316 = LINE( '', #369, #370 );
#317 = VERTEX_POINT( '', #371 );
#318 = LINE( '', #372, #373 );
#319 = VERTEX_POINT( '', #374 );
#320 = LINE( '', #375, #376 );
#321 = LINE( '', #377, #378 );
#322 = FILL_AREA_STYLE_COLOUR( '', #379 );
#323 = VERTEX_POINT( '', #380 );
#324 = CIRCLE( '', #381, 1.75000000000000 );
#325 = VERTEX_POINT( '', #382 );
#326 = CIRCLE( '', #383, 3.00000000000000 );
#327 = FILL_AREA_STYLE_COLOUR( '', #384 );
#328 = VERTEX_POINT( '', #385 );
#329 = LINE( '', #386, #387 );
#330 = VERTEX_POINT( '', #388 );
#331 = LINE( '', #389, #390 );
#332 = LINE( '', #391, #392 );
#333 = FILL_AREA_STYLE_COLOUR( '', #393 );
#334 = VERTEX_POINT( '', #394 );
#335 = CIRCLE( '', #395, 1.75000000000000 );
#336 = FILL_AREA_STYLE_COLOUR( '', #396 );
#337 = VERTEX_POINT( '', #397 );
#338 = LINE( '', #398, #399 );
#339 = VERTEX_POINT( '', #400 );
#340 = LINE( '', #401, #402 );
#341 = LINE( '', #403, #404 );
#342 = FILL_AREA_STYLE_COLOUR( '', #405 );
#343 = VERTEX_POINT( '', #406 );
#344 = CIRCLE( '', #407, 3.00000000000000 );
#345 = FILL_AREA_STYLE_COLOUR( '', #408 );
#346 = VERTEX_POINT( '', #409 );
#347 = VERTEX_POINT( '', #410 );
#348 = LINE( '', #411, #412 );
#349 = VERTEX_POINT( '', #413 );
#350 = LINE( '', #414, #415 );
#351 = VERTEX_POINT( '', #416 );
#352 = LINE( '', #417, #418 );
#353 = LINE( '', #419, #420 );
#354 = FILL_AREA_STYLE_COLOUR( '', #421 );
#355 = VERTEX_POINT( '', #422 );
#356 = CIRCLE( '', #423, 2.38650000000000 );
#357 = FILL_AREA_STYLE_COLOUR( '', #424 );
#358 = FILL_AREA_STYLE_COLOUR( '', #425 );
#359 = LINE( '', #426, #427 );
#360 = LINE( '', #428, #429 );
#361 = FILL_AREA_STYLE_COLOUR( '', #430 );
#362 = LINE( '', #431, #432 );
#363 = FILL_AREA_STYLE_COLOUR( '', #433 );
#364 = LINE( '', #434, #435 );
#365 = FILL_AREA_STYLE_COLOUR( '', #436 );
#366 = COLOUR_RGB( '', 0.689999997600000, 0.689999997600000, 0.689999997600000 );
#367 = CARTESIAN_POINT( '', ( 0.000000000000000, 0.866025403784439, 1.50000000000000 ) );
#368 = CARTESIAN_POINT( '', ( 0.000000000000000, -0.866025403784439, 1.50000000000000 ) );
#369 = CARTESIAN_POINT( '', ( 0.000000000000000, 0.866025403784439, 1.50000000000000 ) );
#370 = VECTOR( '', #437, 1000.00000000000 );
#371 = CARTESIAN_POINT( '', ( 3.00000000000000, 0.866025403784439, 1.50000000000000 ) );
#372 = CARTESIAN_POINT( '', ( 3.00000000000000, 0.866025403784439, 1.50000000000000 ) );
#373 = VECTOR( '', #438, 1000.00000000000 );
#374 = CARTESIAN_POINT( '', ( 3.00000000000000, -0.866025403784439, 1.50000000000000 ) );
#375 = CARTESIAN_POINT( '', ( 3.00000000000000, 0.866025403784439, 1.50000000000000 ) );
#376 = VECTOR( '', #439, 1000.00000000000 );
#377 = CARTESIAN_POINT( '', ( 3.00000000000000, -0.866025403784439, 1.50000000000000 ) );
#378 = VECTOR( '', #440, 1000.00000000000 );
#379 = COLOUR_RGB( '', 0.689999997600000, 0.689999997600000, 0.689999997600000 );
#380 = CARTESIAN_POINT( '', ( 25.7000000000000, 0.000000000000000, -1.75000000000000 ) );
#381 = AXIS2_PLACEMENT_3D( '', #441, #442, #443 );
#382 = CARTESIAN_POINT( '', ( 24.5000000000000, 0.000000000000000, -3.00000000000000 ) );
#383 = AXIS2_PLACEMENT_3D( '', #444, #445, #446 );
#384 = COLOUR_RGB( '', 0.689999997600000, 0.689999997600000, 0.689999997600000 );
#385 = CARTESIAN_POINT( '', ( 0.000000000000000, -1.73205080756888, 0.000000000000000 ) );
#386 = CARTESIAN_POINT( '', ( 0.000000000000000, -0.866025403784439, 1.50000000000000 ) );
#387 = VECTOR( '', #447, 1000.00000000000 );
#388 = CARTESIAN_POINT( '', ( 3.00000000000000, -1.73205080756888, 0.000000000000000 ) );
#389 = CARTESIAN_POINT( '', ( 3.00000000000000, -0.866025403784439, 1.50000000000000 ) );
#390 = VECTOR( '', #448, 1000.00000000000 );
#391 = CARTESIAN_POINT( '', ( 3.00000000000000, -1.73205080756888, 0.000000000000000 ) );
#392 = VECTOR( '', #449, 1000.00000000000 );
#393 = COLOUR_RGB( '', 0.689999997600000, 0.689999997600000, 0.689999997600000 );
#394 = CARTESIAN_POINT( '', ( 26.3357864376269, 0.000000000000000, -1.75000000000000 ) );
#395 = AXIS2_PLACEMENT_3D( '', #450, #451, #452 );
#396 = COLOUR_RGB( '', 0.689999997600000, 0.689999997600000, 0.689999997600000 );
#397 = CARTESIAN_POINT( '', ( 0.000000000000000, -0.866025403784439, -1.50000000000000 ) );
#398 = CARTESIAN_POINT( '', ( 0.000000000000000, -1.73205080756888, 0.000000000000000 ) );
#399 = VECTOR( '', #453, 1000.00000000000 );
#400 = CARTESIAN_POINT( '', ( 3.00000000000000, -0.866025403784439, -1.50000000000000 ) );
#401 = CARTESIAN_POINT( '', ( 3.00000000000000, -1.73205080756888, 0.000000000000000 ) );
#402 = VECTOR( '', #454, 1000.00000000000 );
#403 = CARTESIAN_POINT( '', ( 3.00000000000000, -0.866025403784439, -1.50000000000000 ) );
#404 = VECTOR( '', #455, 1000.00000000000 );
#405 = COLOUR_RGB( '', 0.689999997600000, 0.689999997600000, 0.689999997600000 );
#406 = CARTESIAN_POINT( '', ( 0.613499999999999, 0.000000000000000, -3.00000000000000 ) );
#407 = AXIS2_PLACEMENT_3D( '', #456, #457, #458 );
#408 = COLOUR_RGB( '', 0.689999997600000, 0.689999997600000, 0.689999997600000 );
#409 = CARTESIAN_POINT( '', ( 0.000000000000000, 0.866025403784438, -1.50000000000000 ) );
#410 = CARTESIAN_POINT( '', ( 0.000000000000000, 1.73205080756888, 0.000000000000000 ) );
#411 = CARTESIAN_POINT( '', ( 0.000000000000000, 0.866025403784439, -1.50000000000000 ) );
#412 = VECTOR( '', #459, 1000.00000000000 );
#413 = CARTESIAN_POINT( '', ( 3.00000000000000, 0.866025403784438, -1.50000000000000 ) );
#414 = CARTESIAN_POINT( '', ( 3.00000000000000, 0.866025403784438, -1.50000000000000 ) );
#415 = VECTOR( '', #460, 1000.00000000000 );
#416 = CARTESIAN_POINT( '', ( 3.00000000000000, 1.73205080756888, 0.000000000000000 ) );
#417 = CARTESIAN_POINT( '', ( 3.00000000000000, 0.866025403784439, -1.50000000000000 ) );
#418 = VECTOR( '', #461, 1000.00000000000 );
#419 = CARTESIAN_POINT( '', ( 3.00000000000000, 1.73205080756888, 0.000000000000000 ) );
#420 = VECTOR( '', #462, 1000.00000000000 );
#421 = COLOUR_RGB( '', 0.689999997600000, 0.689999997600000, 0.689999997600000 );
#422 = CARTESIAN_POINT( '', ( 0.000000000000000, 0.000000000000000, -2.38650000000000 ) );
#423 = AXIS2_PLACEMENT_3D( '', #463, #464, #465 );
#424 = COLOUR_RGB( '', 0.689999997600000, 0.689999997600000, 0.689999997600000 );
#425 = COLOUR_RGB( '', 0.689999997600000, 0.689999997600000, 0.689999997600000 );
#426 = CARTESIAN_POINT( '', ( 0.000000000000000, -0.866025403784439, -1.50000000000000 ) );
#427 = VECTOR( '', #466, 1000.00000000000 );
#428 = CARTESIAN_POINT( '', ( 0.000000000000000, 1.73205080756888, 0.000000000000000 ) );
#429 = VECTOR( '', #467, 1000.00000000000 );
#430 = COLOUR_RGB( '', 0.689999997600000, 0.689999997600000, 0.689999997600000 );
#431 = CARTESIAN_POINT( '', ( 3.00000000000000, -0.866025403784439, -1.50000000000000 ) );
#432 = VECTOR( '', #468, 1000.00000000000 );
#433 = COLOUR_RGB( '', 0.689999997600000, 0.689999997600000, 0.689999997600000 );
#434 = CARTESIAN_POINT( '', ( 3.00000000000000, 1.73205080756888, 0.000000000000000 ) );
#435 = VECTOR( '', #469, 1000.00000000000 );
#436 = COLOUR_RGB( '', 0.689999997600000, 0.689999997600000, 0.689999997600000 );
#437 = DIRECTION( '', ( 0.000000000000000, -1.00000000000000, 0.000000000000000 ) );
#438 = DIRECTION( '', ( -1.00000000000000, -0.000000000000000, -0.000000000000000 ) );
#439 = DIRECTION( '', ( 0.000000000000000, -1.00000000000000, 0.000000000000000 ) );
#440 = DIRECTION( '', ( -1.00000000000000, -0.000000000000000, -0.000000000000000 ) );
#441 = CARTESIAN_POINT( '', ( 25.7000000000000, 0.000000000000000, 0.000000000000000 ) );
#442 = DIRECTION( '', ( 1.00000000000000, 0.000000000000000, -0.000000000000000 ) );
#443 = DIRECTION( '', ( -0.000000000000000, 0.000000000000000, -1.00000000000000 ) );
#444 = CARTESIAN_POINT( '', ( 24.5000000000000, 0.000000000000000, 0.000000000000000 ) );
#445 = DIRECTION( '', ( 1.00000000000000, 0.000000000000000, -0.000000000000000 ) );
#446 = DIRECTION( '', ( -0.000000000000000, 0.000000000000000, -1.00000000000000 ) );
#447 = DIRECTION( '', ( 0.000000000000000, -0.500000000000000, -0.866025403784439 ) );
#448 = DIRECTION( '', ( 0.000000000000000, -0.500000000000000, -0.866025403784439 ) );
#449 = DIRECTION( '', ( -1.00000000000000, -0.000000000000000, -0.000000000000000 ) );
#450 = CARTESIAN_POINT( '', ( 26.3357864376269, 0.000000000000000, 0.000000000000000 ) );
#451 = DIRECTION( '', ( 1.00000000000000, 0.000000000000000, -0.000000000000000 ) );
#452 = DIRECTION( '', ( -0.000000000000000, 0.000000000000000, -1.00000000000000 ) );
#453 = DIRECTION( '', ( 0.000000000000000, 0.500000000000000, -0.866025403784439 ) );
#454 = DIRECTION( '', ( 0.000000000000000, 0.500000000000000, -0.866025403784439 ) );
#455 = DIRECTION( '', ( -1.00000000000000, -0.000000000000000, -0.000000000000000 ) );
#456 = CARTESIAN_POINT( '', ( 0.613499999999999, 0.000000000000000, 0.000000000000000 ) );
#457 = DIRECTION( '', ( 1.00000000000000, 0.000000000000000, -0.000000000000000 ) );
#458 = DIRECTION( '', ( -0.000000000000000, 0.000000000000000, -1.00000000000000 ) );
#459 = DIRECTION( '', ( 0.000000000000000, 0.500000000000000, 0.866025403784439 ) );
#460 = DIRECTION( '', ( -1.00000000000000, -0.000000000000000, -0.000000000000000 ) );
#461 = DIRECTION( '', ( 0.000000000000000, 0.500000000000000, 0.866025403784439 ) );
#462 = DIRECTION( '', ( -1.00000000000000, -0.000000000000000, -0.000000000000000 ) );
#463 = CARTESIAN_POINT( '', ( 0.000000000000000, 0.000000000000000, 0.000000000000000 ) );
#464 = DIRECTION( '', ( 1.00000000000000, 0.000000000000000, -0.000000000000000 ) );
#465 = DIRECTION( '', ( -0.000000000000000, 0.000000000000000, -1.00000000000000 ) );
#466 = DIRECTION( '', ( 0.000000000000000, 1.00000000000000, 0.000000000000000 ) );
#467 = DIRECTION( '', ( 0.000000000000000, -0.500000000000000, 0.866025403784439 ) );
#468 = DIRECTION( '', ( 0.000000000000000, 1.00000000000000, 0.000000000000000 ) );
#469 = DIRECTION( '', ( 0.000000000000000, -0.500000000000000, 0.866025403784439 ) );
ENDSEC;
END-ISO-10303-21;
