ISO-10303-21;
HEADER;
FILE_DESCRIPTION( ( 'STEP AP214' ), '1' );
FILE_NAME( '//goodhand-server/Shared Folders/GoodHand Data/Kipp CAD/K0396/K0396.1475.stp', '2020-12-07T10:26:39', ( '' ), ( '' ), ' ', 'PARTsolutions', ' ' );
FILE_SCHEMA( ( 'AUTOMOTIVE_DESIGN { 1 0 10303 214 1 1 1 1 }' ) );
ENDSEC;
DATA;
#1 = MECHANICAL_DESIGN_GEOMETRIC_PRESENTATION_REPRESENTATION( ' ', ( #10, #11, #12, #13, #14, #15, #16, #17 ), #6 );
#2 = PRODUCT_DEFINITION_CONTEXT( '', #18, 'design' );
#3 = APPLICATION_PROTOCOL_DEFINITION( 'international standard', 'automotive_design', 2001, #18 );
#4 = PRODUCT_CATEGORY_RELATIONSHIP( 'NONE', 'NONE', #19, #20 );
#5 = SHAPE_DEFINITION_REPRESENTATION( #21, #22 );
#6 =  ( GEOMETRIC_REPRESENTATION_CONTEXT( 3 )GLOBAL_UNCERTAINTY_ASSIGNED_CONTEXT( ( #25 ) )GLOBAL_UNIT_ASSIGNED_CONTEXT( ( #27, #28, #29 ) )REPRESENTATION_CONTEXT( 'NONE', 'WORKSPACE' ) );
#10 = STYLED_ITEM( '', ( #31 ), #32 );
#11 = STYLED_ITEM( '', ( #33 ), #34 );
#12 = STYLED_ITEM( '', ( #35 ), #36 );
#13 = STYLED_ITEM( '', ( #37 ), #38 );
#14 = STYLED_ITEM( '', ( #39 ), #40 );
#15 = STYLED_ITEM( '', ( #41 ), #42 );
#16 = STYLED_ITEM( '', ( #43 ), #44 );
#17 = STYLED_ITEM( '', ( #45 ), #46 );
#18 = APPLICATION_CONTEXT( 'core data for automotive mechanical design processes' );
#19 = PRODUCT_CATEGORY( 'part', 'NONE' );
#20 = PRODUCT_RELATED_PRODUCT_CATEGORY( 'detail', ' ', ( #47 ) );
#21 = PRODUCT_DEFINITION_SHAPE( 'NONE', 'NONE', #48 );
#22 = ADVANCED_BREP_SHAPE_REPRESENTATION( '_K0396.1475', ( #49, #50 ), #6 );
#25 = UNCERTAINTY_MEASURE_WITH_UNIT( LENGTH_MEASURE( 0.00100000000000000 ), #27, '', '' );
#27 =  ( CONVERSION_BASED_UNIT( 'MILLIMETRE', #53 )LENGTH_UNIT(  )NAMED_UNIT( #56 ) );
#28 =  ( NAMED_UNIT( #58 )PLANE_ANGLE_UNIT(  )SI_UNIT( $, .RADIAN. ) );
#29 =  ( NAMED_UNIT( #58 )SI_UNIT( $, .STERADIAN. )SOLID_ANGLE_UNIT(  ) );
#31 = PRESENTATION_STYLE_ASSIGNMENT( ( #64 ) );
#32 = ADVANCED_FACE( '', ( #65, #66 ), #67, .F. );
#33 = PRESENTATION_STYLE_ASSIGNMENT( ( #68 ) );
#34 = ADVANCED_FACE( '', ( #69, #70 ), #71, .T. );
#35 = PRESENTATION_STYLE_ASSIGNMENT( ( #72 ) );
#36 = ADVANCED_FACE( '', ( #73, #74 ), #75, .T. );
#37 = PRESENTATION_STYLE_ASSIGNMENT( ( #76 ) );
#38 = ADVANCED_FACE( '', ( #77, #78 ), #79, .T. );
#39 = PRESENTATION_STYLE_ASSIGNMENT( ( #80 ) );
#40 = ADVANCED_FACE( '', ( #81, #82 ), #83, .F. );
#41 = PRESENTATION_STYLE_ASSIGNMENT( ( #84 ) );
#42 = ADVANCED_FACE( '', ( #85, #86 ), #87, .T. );
#43 = PRESENTATION_STYLE_ASSIGNMENT( ( #88 ) );
#44 = ADVANCED_FACE( '', ( #89, #90 ), #91, .T. );
#45 = PRESENTATION_STYLE_ASSIGNMENT( ( #92 ) );
#46 = ADVANCED_FACE( '', ( #93 ), #94, .F. );
#47 = PRODUCT( '_K0396.1475', '_K0396.1475', 'PART-_K0396.1475-DESC', ( #95 ) );
#48 = PRODUCT_DEFINITION( 'NONE', 'NONE', #96, #2 );
#49 = MANIFOLD_SOLID_BREP( '_K0396.1475', #97 );
#50 = AXIS2_PLACEMENT_3D( '', #98, #99, #100 );
#53 = LENGTH_MEASURE_WITH_UNIT( LENGTH_MEASURE( 1.00000000000000 ), #101 );
#56 = DIMENSIONAL_EXPONENTS( 1.00000000000000, 0.000000000000000, 0.000000000000000, 0.000000000000000, 0.000000000000000, 0.000000000000000, 0.000000000000000 );
#58 = DIMENSIONAL_EXPONENTS( 0.000000000000000, 0.000000000000000, 0.000000000000000, 0.000000000000000, 0.000000000000000, 0.000000000000000, 0.000000000000000 );
#64 = SURFACE_STYLE_USAGE( .BOTH., #102 );
#65 = FACE_OUTER_BOUND( '', #103, .T. );
#66 = FACE_OUTER_BOUND( '', #104, .T. );
#67 = TOROIDAL_SURFACE( '', #105, 13.0000000000000, 6.00000000000000 );
#68 = SURFACE_STYLE_USAGE( .BOTH., #106 );
#69 = FACE_BOUND( '', #107, .T. );
#70 = FACE_OUTER_BOUND( '', #108, .T. );
#71 = CONICAL_SURFACE( '', #109, 7.00000000000000, 0.785398163400000 );
#72 = SURFACE_STYLE_USAGE( .BOTH., #110 );
#73 = FACE_BOUND( '', #111, .T. );
#74 = FACE_OUTER_BOUND( '', #112, .T. );
#75 = PLANE( '', #113 );
#76 = SURFACE_STYLE_USAGE( .BOTH., #114 );
#77 = FACE_BOUND( '', #115, .T. );
#78 = FACE_OUTER_BOUND( '', #116, .T. );
#79 = SPHERICAL_SURFACE( '', #117, 14.0000000000000 );
#80 = SURFACE_STYLE_USAGE( .BOTH., #118 );
#81 = FACE_OUTER_BOUND( '', #119, .T. );
#82 = FACE_OUTER_BOUND( '', #120, .T. );
#83 = CYLINDRICAL_SURFACE( '', #121, 7.00000000000000 );
#84 = SURFACE_STYLE_USAGE( .BOTH., #122 );
#85 = FACE_OUTER_BOUND( '', #123, .T. );
#86 = FACE_OUTER_BOUND( '', #124, .T. );
#87 = CYLINDRICAL_SURFACE( '', #125, 7.00000000000000 );
#88 = SURFACE_STYLE_USAGE( .BOTH., #126 );
#89 = FACE_OUTER_BOUND( '', #127, .T. );
#90 = FACE_BOUND( '', #128, .T. );
#91 = PLANE( '', #129 );
#92 = SURFACE_STYLE_USAGE( .BOTH., #130 );
#93 = FACE_OUTER_BOUND( '', #131, .T. );
#94 = PLANE( '', #132 );
#95 = PRODUCT_CONTEXT( '', #18, 'mechanical' );
#96 = PRODUCT_DEFINITION_FORMATION_WITH_SPECIFIED_SOURCE( ' ', 'NONE', #47, .NOT_KNOWN. );
#97 = CLOSED_SHELL( '', ( #44, #46, #34, #42, #32, #38, #36, #40 ) );
#98 = CARTESIAN_POINT( '', ( 0.000000000000000, 0.000000000000000, 0.000000000000000 ) );
#99 = DIRECTION( '', ( 0.000000000000000, 0.000000000000000, 1.00000000000000 ) );
#100 = DIRECTION( '', ( 1.00000000000000, 0.000000000000000, 0.000000000000000 ) );
#101 =  ( LENGTH_UNIT(  )NAMED_UNIT( #56 )SI_UNIT( .MILLI., .METRE. ) );
#102 = SURFACE_SIDE_STYLE( '', ( #134 ) );
#103 = EDGE_LOOP( '', ( #135 ) );
#104 = EDGE_LOOP( '', ( #136, #137, #138, #139 ) );
#105 = AXIS2_PLACEMENT_3D( '', #140, #141, #142 );
#106 = SURFACE_SIDE_STYLE( '', ( #143 ) );
#107 = EDGE_LOOP( '', ( #144 ) );
#108 = EDGE_LOOP( '', ( #145 ) );
#109 = AXIS2_PLACEMENT_3D( '', #146, #147, #148 );
#110 = SURFACE_SIDE_STYLE( '', ( #149 ) );
#111 = EDGE_LOOP( '', ( #150 ) );
#112 = EDGE_LOOP( '', ( #151, #152 ) );
#113 = AXIS2_PLACEMENT_3D( '', #153, #154, #155 );
#114 = SURFACE_SIDE_STYLE( '', ( #156 ) );
#115 = VERTEX_LOOP( '', #157 );
#116 = EDGE_LOOP( '', ( #158, #159, #160, #161 ) );
#117 = AXIS2_PLACEMENT_3D( '', #162, #163, #164 );
#118 = SURFACE_SIDE_STYLE( '', ( #165 ) );
#119 = EDGE_LOOP( '', ( #166 ) );
#120 = EDGE_LOOP( '', ( #167 ) );
#121 = AXIS2_PLACEMENT_3D( '', #168, #169, #170 );
#122 = SURFACE_SIDE_STYLE( '', ( #171 ) );
#123 = EDGE_LOOP( '', ( #172 ) );
#124 = EDGE_LOOP( '', ( #173 ) );
#125 = AXIS2_PLACEMENT_3D( '', #174, #175, #176 );
#126 = SURFACE_SIDE_STYLE( '', ( #177 ) );
#127 = EDGE_LOOP( '', ( #178, #179 ) );
#128 = EDGE_LOOP( '', ( #180 ) );
#129 = AXIS2_PLACEMENT_3D( '', #181, #182, #183 );
#130 = SURFACE_SIDE_STYLE( '', ( #184 ) );
#131 = EDGE_LOOP( '', ( #185 ) );
#132 = AXIS2_PLACEMENT_3D( '', #186, #187, #188 );
#134 = SURFACE_STYLE_FILL_AREA( #189 );
#135 = ORIENTED_EDGE( '', *, *, #190, .F. );
#136 = ORIENTED_EDGE( '', *, *, #191, .F. );
#137 = ORIENTED_EDGE( '', *, *, #192, .T. );
#138 = ORIENTED_EDGE( '', *, *, #193, .F. );
#139 = ORIENTED_EDGE( '', *, *, #194, .T. );
#140 = CARTESIAN_POINT( '', ( 15.1986841535707, 3.46944695195361E-15, 0.000000000000000 ) );
#141 = DIRECTION( '', ( 1.00000000000000, 6.05721554920754E-17, -0.000000000000000 ) );
#142 = DIRECTION( '', ( -6.05721554920754E-17, 1.00000000000000, 0.000000000000000 ) );
#143 = SURFACE_STYLE_FILL_AREA( #195 );
#144 = ORIENTED_EDGE( '', *, *, #196, .F. );
#145 = ORIENTED_EDGE( '', *, *, #197, .T. );
#146 = CARTESIAN_POINT( '', ( 73.7730000000000, 7.03110532281223E-15, 0.000000000000000 ) );
#147 = DIRECTION( '', ( -1.00000000000000, -6.05721554920754E-17, 0.000000000000000 ) );
#148 = DIRECTION( '', ( 6.05721554920754E-17, -1.00000000000000, 0.000000000000000 ) );
#149 = SURFACE_STYLE_FILL_AREA( #198 );
#150 = ORIENTED_EDGE( '', *, *, #199, .F. );
#151 = ORIENTED_EDGE( '', *, *, #200, .F. );
#152 = ORIENTED_EDGE( '', *, *, #191, .T. );
#153 = CARTESIAN_POINT( '', ( 0.000000000000000, 14.0000000000000, 8.00000000000000 ) );
#154 = DIRECTION( '', ( 0.000000000000000, 0.000000000000000, 1.00000000000000 ) );
#155 = DIRECTION( '', ( 1.00000000000000, 0.000000000000000, -0.000000000000000 ) );
#156 = SURFACE_STYLE_FILL_AREA( #201 );
#157 = VERTEX_POINT( '', #202 );
#158 = ORIENTED_EDGE( '', *, *, #192, .F. );
#159 = ORIENTED_EDGE( '', *, *, #200, .T. );
#160 = ORIENTED_EDGE( '', *, *, #194, .F. );
#161 = ORIENTED_EDGE( '', *, *, #203, .T. );
#162 = CARTESIAN_POINT( '', ( -1.73472347597681E-15, 2.60208521396521E-15, 0.000000000000000 ) );
#163 = DIRECTION( '', ( 1.00000000000000, 0.000000000000000, 0.000000000000000 ) );
#164 = DIRECTION( '', ( 0.000000000000000, 1.00000000000000, 0.000000000000000 ) );
#165 = SURFACE_STYLE_FILL_AREA( #204 );
#166 = ORIENTED_EDGE( '', *, *, #199, .T. );
#167 = ORIENTED_EDGE( '', *, *, #205, .T. );
#168 = CARTESIAN_POINT( '', ( 0.000000000000000, 0.000000000000000, 8.00100000000000 ) );
#169 = DIRECTION( '', ( -0.000000000000000, -0.000000000000000, 1.00000000000000 ) );
#170 = DIRECTION( '', ( -1.00000000000000, 0.000000000000000, 0.000000000000000 ) );
#171 = SURFACE_STYLE_FILL_AREA( #206 );
#172 = ORIENTED_EDGE( '', *, *, #197, .F. );
#173 = ORIENTED_EDGE( '', *, *, #190, .T. );
#174 = CARTESIAN_POINT( '', ( 50.0000000000000, 5.59112347029912E-15, 0.000000000000000 ) );
#175 = DIRECTION( '', ( -1.00000000000000, -6.05721554920754E-17, 0.000000000000000 ) );
#176 = DIRECTION( '', ( -6.05721554920754E-17, 1.00000000000000, 0.000000000000000 ) );
#177 = SURFACE_STYLE_FILL_AREA( #207 );
#178 = ORIENTED_EDGE( '', *, *, #203, .F. );
#179 = ORIENTED_EDGE( '', *, *, #193, .T. );
#180 = ORIENTED_EDGE( '', *, *, #205, .F. );
#181 = CARTESIAN_POINT( '', ( 0.000000000000000, 0.000000000000000, -8.00000000000000 ) );
#182 = DIRECTION( '', ( -0.000000000000000, 0.000000000000000, -1.00000000000000 ) );
#183 = DIRECTION( '', ( -1.00000000000000, 0.000000000000000, 0.000000000000000 ) );
#184 = SURFACE_STYLE_FILL_AREA( #208 );
#185 = ORIENTED_EDGE( '', *, *, #196, .T. );
#186 = CARTESIAN_POINT( '', ( 75.0000000000000, 5.77299999999999, 0.000000000000000 ) );
#187 = DIRECTION( '', ( -1.00000000000000, -6.05721554920754E-17, 0.000000000000000 ) );
#188 = DIRECTION( '', ( 6.05721554920754E-17, -1.00000000000000, 0.000000000000000 ) );
#189 = FILL_AREA_STYLE( '', ( #209 ) );
#190 = EDGE_CURVE( '', #210, #210, #211, .T. );
#191 = EDGE_CURVE( '', #212, #213, #214, .T. );
#192 = EDGE_CURVE( '', #212, #215, #216, .T. );
#193 = EDGE_CURVE( '', #217, #215, #218, .T. );
#194 = EDGE_CURVE( '', #217, #213, #219, .T. );
#195 = FILL_AREA_STYLE( '', ( #220 ) );
#196 = EDGE_CURVE( '', #221, #221, #222, .T. );
#197 = EDGE_CURVE( '', #223, #223, #224, .T. );
#198 = FILL_AREA_STYLE( '', ( #225 ) );
#199 = EDGE_CURVE( '', #226, #226, #227, .T. );
#200 = EDGE_CURVE( '', #212, #213, #228, .F. );
#201 = FILL_AREA_STYLE( '', ( #229 ) );
#202 = CARTESIAN_POINT( '', ( -14.0000000000000, 2.61132779647930E-15, 0.000000000000000 ) );
#203 = EDGE_CURVE( '', #217, #215, #230, .F. );
#204 = FILL_AREA_STYLE( '', ( #231 ) );
#205 = EDGE_CURVE( '', #232, #232, #233, .T. );
#206 = FILL_AREA_STYLE( '', ( #234 ) );
#207 = FILL_AREA_STYLE( '', ( #235 ) );
#208 = FILL_AREA_STYLE( '', ( #236 ) );
#209 = FILL_AREA_STYLE_COLOUR( '', #237 );
#210 = VERTEX_POINT( '', #238 );
#211 = CIRCLE( '', #239, 7.00000000000000 );
#212 = VERTEX_POINT( '', #240 );
#213 = VERTEX_POINT( '', #241 );
#214 = B_SPLINE_CURVE_WITH_KNOTS( '', 3, ( #242, #243, #244, #245, #246, #247, #248, #249, #250, #251, #252, #253, #254, #255, #256, #257, #258, #259 ), .UNSPECIFIED., .F., .F., ( 4, 2, 2, 2, 2, 2, 2, 2, 4 ), ( 0.0779739505010905, 0.0802033103258639, 0.0813179902382507, 0.0818753301944441, 0.0821540001725407, 0.0824326701506374, 0.0846620299754109, 0.0857767098877976, 0.0868913898001844 ), .UNSPECIFIED. );
#215 = VERTEX_POINT( '', #260 );
#216 = CIRCLE( '', #261, 9.10000000000000 );
#217 = VERTEX_POINT( '', #262 );
#218 = B_SPLINE_CURVE_WITH_KNOTS( '', 3, ( #263, #264, #265, #266, #267, #268, #269, #270, #271, #272, #273, #274, #275, #276, #277, #278, #279, #280 ), .UNSPECIFIED., .F., .F., ( 4, 2, 2, 2, 2, 2, 2, 2, 4 ), ( 0.0779739505010904, 0.0802033103258639, 0.0813179902382507, 0.0818753301944440, 0.0821540001725407, 0.0824326701506374, 0.0846620299754109, 0.0857767098877976, 0.0868913898001843 ), .UNSPECIFIED. );
#219 = CIRCLE( '', #281, 9.10000000000000 );
#220 = FILL_AREA_STYLE_COLOUR( '', #282 );
#221 = VERTEX_POINT( '', #283 );
#222 = CIRCLE( '', #284, 5.77300000000000 );
#223 = VERTEX_POINT( '', #285 );
#224 = CIRCLE( '', #286, 7.00000000000000 );
#225 = FILL_AREA_STYLE_COLOUR( '', #287 );
#226 = VERTEX_POINT( '', #288 );
#227 = CIRCLE( '', #289, 7.00000000000000 );
#228 = CIRCLE( '', #290, 11.4891252931000 );
#229 = FILL_AREA_STYLE_COLOUR( '', #291 );
#230 = CIRCLE( '', #292, 11.4891252931000 );
#231 = FILL_AREA_STYLE_COLOUR( '', #293 );
#232 = VERTEX_POINT( '', #294 );
#233 = CIRCLE( '', #295, 7.00000000000000 );
#234 = FILL_AREA_STYLE_COLOUR( '', #296 );
#235 = FILL_AREA_STYLE_COLOUR( '', #297 );
#236 = FILL_AREA_STYLE_COLOUR( '', #298 );
#237 = COLOUR_RGB( '', 0.689999997600000, 0.689999997600000, 0.689999997600000 );
#238 = CARTESIAN_POINT( '', ( 15.1986841535707, 7.00000000000000, 0.000000000000000 ) );
#239 = AXIS2_PLACEMENT_3D( '', #299, #300, #301 );
#240 = CARTESIAN_POINT( '', ( 10.6390789074995, -4.33704968844028, 8.00000000000000 ) );
#241 = CARTESIAN_POINT( '', ( 10.6390789074995, 4.33704968844029, 8.00000000000000 ) );
#242 = CARTESIAN_POINT( '', ( 10.6390789074995, -4.33704968844028, 8.00000000000000 ) );
#243 = CARTESIAN_POINT( '', ( 10.9270225096908, -3.63070437891146, 8.00000000000000 ) );
#244 = CARTESIAN_POINT( '', ( 11.2284882141069, -2.92860489545403, 8.00000000000000 ) );
#245 = CARTESIAN_POINT( '', ( 11.5911618393787, -1.84734559675596, 8.00000000000000 ) );
#246 = CARTESIAN_POINT( '', ( 11.6961319752982, -1.48192674801379, 8.00000000000000 ) );
#247 = CARTESIAN_POINT( '', ( 11.8068845130992, -0.919134231579352, 8.00000000000000 ) );
#248 = CARTESIAN_POINT( '', ( 11.8359481076146, -0.729070662051894, 8.00000000000000 ) );
#249 = CARTESIAN_POINT( '', ( 11.8648037879428, -0.439347162661932, 8.00000000000000 ) );
#250 = CARTESIAN_POINT( '', ( 11.8719680223921, -0.342002025304464, 8.00000000000000 ) );
#251 = CARTESIAN_POINT( '', ( 11.8809642304223, -0.145637465641985, 8.00000000000000 ) );
#252 = CARTESIAN_POINT( '', ( 11.8827281719846, -0.0442741522334299, 8.00000000000000 ) );
#253 = CARTESIAN_POINT( '', ( 11.8745114145963, 0.812356664401575, 8.00000000000000 ) );
#254 = CARTESIAN_POINT( '', ( 11.6982771843840, 1.53431332489072, 8.00000000000000 ) );
#255 = CARTESIAN_POINT( '', ( 11.3392123394009, 2.59510597239901, 8.00000000000000 ) );
#256 = CARTESIAN_POINT( '', ( 11.2041198090010, 2.94533158308166, 8.00000000000000 ) );
#257 = CARTESIAN_POINT( '', ( 10.9249735643619, 3.64239526343750, 8.00000000000000 ) );
#258 = CARTESIAN_POINT( '', ( 10.7808403828105, 3.98929911368964, 8.00000000000000 ) );
#259 = CARTESIAN_POINT( '', ( 10.6390789074995, 4.33704968844029, 8.00000000000000 ) );
#260 = CARTESIAN_POINT( '', ( 10.6390789074995, -4.33704968844028, -8.00000000000000 ) );
#261 = AXIS2_PLACEMENT_3D( '', #302, #303, #304 );
#262 = CARTESIAN_POINT( '', ( 10.6390789074995, 4.33704968844029, -8.00000000000000 ) );
#263 = CARTESIAN_POINT( '', ( 10.6390789074995, 4.33704968844029, -8.00000000000000 ) );
#264 = CARTESIAN_POINT( '', ( 10.9270225096908, 3.63070437891148, -8.00000000000000 ) );
#265 = CARTESIAN_POINT( '', ( 11.2284882141069, 2.92860489545404, -8.00000000000000 ) );
#266 = CARTESIAN_POINT( '', ( 11.5911618393787, 1.84734559675597, -8.00000000000000 ) );
#267 = CARTESIAN_POINT( '', ( 11.6961319752982, 1.48192674801379, -8.00000000000000 ) );
#268 = CARTESIAN_POINT( '', ( 11.8068845130992, 0.919134231579361, -8.00000000000000 ) );
#269 = CARTESIAN_POINT( '', ( 11.8359481076146, 0.729070662051904, -8.00000000000000 ) );
#270 = CARTESIAN_POINT( '', ( 11.8648037879428, 0.439347162661941, -8.00000000000000 ) );
#271 = CARTESIAN_POINT( '', ( 11.8719680223921, 0.342002025304457, -8.00000000000000 ) );
#272 = CARTESIAN_POINT( '', ( 11.8809642304223, 0.145637465641978, -8.00000000000000 ) );
#273 = CARTESIAN_POINT( '', ( 11.8827281719846, 0.0442741522334369, -8.00000000000000 ) );
#274 = CARTESIAN_POINT( '', ( 11.8745114145963, -0.812356664401569, -8.00000000000000 ) );
#275 = CARTESIAN_POINT( '', ( 11.6982771843840, -1.53431332489071, -8.00000000000000 ) );
#276 = CARTESIAN_POINT( '', ( 11.3392123394009, -2.59510597239900, -8.00000000000000 ) );
#277 = CARTESIAN_POINT( '', ( 11.2041198090010, -2.94533158308165, -8.00000000000000 ) );
#278 = CARTESIAN_POINT( '', ( 10.9249735643619, -3.64239526343750, -8.00000000000000 ) );
#279 = CARTESIAN_POINT( '', ( 10.7808403828105, -3.98929911368963, -8.00000000000000 ) );
#280 = CARTESIAN_POINT( '', ( 10.6390789074995, -4.33704968844028, -8.00000000000000 ) );
#281 = AXIS2_PLACEMENT_3D( '', #305, #306, #307 );
#282 = COLOUR_RGB( '', 0.689999997600000, 0.689999997600000, 0.689999997600000 );
#283 = CARTESIAN_POINT( '', ( 75.0000000000000, 5.77299999999999, 0.000000000000000 ) );
#284 = AXIS2_PLACEMENT_3D( '', #308, #309, #310 );
#285 = CARTESIAN_POINT( '', ( 73.7730000000000, 6.99999999999999, 0.000000000000000 ) );
#286 = AXIS2_PLACEMENT_3D( '', #311, #312, #313 );
#287 = COLOUR_RGB( '', 0.689999997600000, 0.689999997600000, 0.689999997600000 );
#288 = CARTESIAN_POINT( '', ( 7.00000000000000, 0.000000000000000, 8.00000000000000 ) );
#289 = AXIS2_PLACEMENT_3D( '', #314, #315, #316 );
#290 = AXIS2_PLACEMENT_3D( '', #317, #318, #319 );
#291 = COLOUR_RGB( '', 0.689999997600000, 0.689999997600000, 0.689999997600000 );
#292 = AXIS2_PLACEMENT_3D( '', #320, #321, #322 );
#293 = COLOUR_RGB( '', 0.689999997600000, 0.689999997600000, 0.689999997600000 );
#294 = CARTESIAN_POINT( '', ( 0.000000000000000, 7.00000000000000, -8.00000000000000 ) );
#295 = AXIS2_PLACEMENT_3D( '', #323, #324, #325 );
#296 = COLOUR_RGB( '', 0.689999997600000, 0.689999997600000, 0.689999997600000 );
#297 = COLOUR_RGB( '', 0.689999997600000, 0.689999997600000, 0.689999997600000 );
#298 = COLOUR_RGB( '', 0.689999997600000, 0.689999997600000, 0.689999997600000 );
#299 = CARTESIAN_POINT( '', ( 15.1986841535707, 3.48313275552037E-15, 0.000000000000000 ) );
#300 = DIRECTION( '', ( 1.00000000000000, 6.05721554920754E-17, -0.000000000000000 ) );
#301 = DIRECTION( '', ( -6.05721554920754E-17, 1.00000000000000, 0.000000000000000 ) );
#302 = CARTESIAN_POINT( '', ( 10.6390789074995, 3.20694763757287E-15, 0.000000000000000 ) );
#303 = DIRECTION( '', ( 1.00000000000000, 6.05721554920754E-17, -0.000000000000000 ) );
#304 = DIRECTION( '', ( -6.05721554920754E-17, 1.00000000000000, 0.000000000000000 ) );
#305 = CARTESIAN_POINT( '', ( 10.6390789074995, 3.20694763757287E-15, 0.000000000000000 ) );
#306 = DIRECTION( '', ( 1.00000000000000, 6.05721554920754E-17, -0.000000000000000 ) );
#307 = DIRECTION( '', ( -6.05721554920754E-17, 1.00000000000000, 0.000000000000000 ) );
#308 = CARTESIAN_POINT( '', ( 75.0000000000000, 7.10542735760100E-15, 0.000000000000000 ) );
#309 = DIRECTION( '', ( 1.00000000000000, 6.05721554920754E-17, -0.000000000000000 ) );
#310 = DIRECTION( '', ( -6.05721554920754E-17, 1.00000000000000, 0.000000000000000 ) );
#311 = CARTESIAN_POINT( '', ( 73.7730000000000, 7.03110532281223E-15, 0.000000000000000 ) );
#312 = DIRECTION( '', ( 1.00000000000000, 6.05721554920754E-17, -0.000000000000000 ) );
#313 = DIRECTION( '', ( -6.05721554920754E-17, 1.00000000000000, 0.000000000000000 ) );
#314 = CARTESIAN_POINT( '', ( 0.000000000000000, 0.000000000000000, 8.00000000000000 ) );
#315 = DIRECTION( '', ( 0.000000000000000, 0.000000000000000, 1.00000000000000 ) );
#316 = DIRECTION( '', ( 1.00000000000000, 0.000000000000000, -0.000000000000000 ) );
#317 = CARTESIAN_POINT( '', ( -1.73472347597681E-15, 2.60208521396521E-15, 8.00000000000000 ) );
#318 = DIRECTION( '', ( 0.000000000000000, 0.000000000000000, 1.00000000000000 ) );
#319 = DIRECTION( '', ( 1.00000000000000, 0.000000000000000, -0.000000000000000 ) );
#320 = CARTESIAN_POINT( '', ( -1.73472347597681E-15, 2.60208521396521E-15, -8.00000000000000 ) );
#321 = DIRECTION( '', ( -0.000000000000000, 0.000000000000000, -1.00000000000000 ) );
#322 = DIRECTION( '', ( -1.00000000000000, 0.000000000000000, 0.000000000000000 ) );
#323 = CARTESIAN_POINT( '', ( 0.000000000000000, 0.000000000000000, -8.00000000000000 ) );
#324 = DIRECTION( '', ( 0.000000000000000, 0.000000000000000, -1.00000000000000 ) );
#325 = DIRECTION( '', ( 0.000000000000000, 1.00000000000000, 0.000000000000000 ) );
ENDSEC;
END-ISO-10303-21;
