ISO-10303-21;
HEADER;
FILE_DESCRIPTION( ( 'STEP AP214' ), '1' );
FILE_NAME( '//goodhand-server/Shared Folders/GoodHand Data/Kipp CAD/K1163/K1163.05X30.stp', '2020-12-10T10:35:17', ( '' ), ( '' ), ' ', 'PARTsolutions', ' ' );
FILE_SCHEMA( ( 'AUTOMOTIVE_DESIGN { 1 0 10303 214 1 1 1 1 }' ) );
ENDSEC;
DATA;
#1 = MECHANICAL_DESIGN_GEOMETRIC_PRESENTATION_REPRESENTATION( ' ', ( #10, #11, #12, #13, #14, #15, #16, #17, #18, #19, #20, #21, #22, #23, #24 ), #6 );
#2 = PRODUCT_DEFINITION_CONTEXT( '', #25, 'design' );
#3 = APPLICATION_PROTOCOL_DEFINITION( 'international standard', 'automotive_design', 2001, #25 );
#4 = PRODUCT_CATEGORY_RELATIONSHIP( 'NONE', 'NONE', #26, #27 );
#5 = SHAPE_DEFINITION_REPRESENTATION( #28, #29 );
#6 =  ( GEOMETRIC_REPRESENTATION_CONTEXT( 3 )GLOBAL_UNCERTAINTY_ASSIGNED_CONTEXT( ( #32 ) )GLOBAL_UNIT_ASSIGNED_CONTEXT( ( #34, #35, #36 ) )REPRESENTATION_CONTEXT( 'NONE', 'WORKSPACE' ) );
#10 = STYLED_ITEM( '', ( #38 ), #39 );
#11 = STYLED_ITEM( '', ( #40 ), #41 );
#12 = STYLED_ITEM( '', ( #42 ), #43 );
#13 = STYLED_ITEM( '', ( #44 ), #45 );
#14 = STYLED_ITEM( '', ( #46 ), #47 );
#15 = STYLED_ITEM( '', ( #48 ), #49 );
#16 = STYLED_ITEM( '', ( #50 ), #51 );
#17 = STYLED_ITEM( '', ( #52 ), #53 );
#18 = STYLED_ITEM( '', ( #54 ), #55 );
#19 = STYLED_ITEM( '', ( #56 ), #57 );
#20 = STYLED_ITEM( '', ( #58 ), #59 );
#21 = STYLED_ITEM( '', ( #60 ), #61 );
#22 = STYLED_ITEM( '', ( #62 ), #63 );
#23 = STYLED_ITEM( '', ( #64 ), #65 );
#24 = STYLED_ITEM( '', ( #66 ), #67 );
#25 = APPLICATION_CONTEXT( 'core data for automotive mechanical design processes' );
#26 = PRODUCT_CATEGORY( 'part', 'NONE' );
#27 = PRODUCT_RELATED_PRODUCT_CATEGORY( 'detail', ' ', ( #68 ) );
#28 = PRODUCT_DEFINITION_SHAPE( 'NONE', 'NONE', #69 );
#29 = ADVANCED_BREP_SHAPE_REPRESENTATION( '_K1163.05X30', ( #70, #71 ), #6 );
#32 = UNCERTAINTY_MEASURE_WITH_UNIT( LENGTH_MEASURE( 0.00100000000000000 ), #34, '', '' );
#34 =  ( CONVERSION_BASED_UNIT( 'MILLIMETRE', #74 )LENGTH_UNIT(  )NAMED_UNIT( #77 ) );
#35 =  ( NAMED_UNIT( #79 )PLANE_ANGLE_UNIT(  )SI_UNIT( $, .RADIAN. ) );
#36 =  ( NAMED_UNIT( #79 )SI_UNIT( $, .STERADIAN. )SOLID_ANGLE_UNIT(  ) );
#38 = PRESENTATION_STYLE_ASSIGNMENT( ( #85 ) );
#39 = ADVANCED_FACE( '', ( #86, #87 ), #88, .T. );
#40 = PRESENTATION_STYLE_ASSIGNMENT( ( #89 ) );
#41 = ADVANCED_FACE( '', ( #90, #91 ), #92, .T. );
#42 = PRESENTATION_STYLE_ASSIGNMENT( ( #93 ) );
#43 = ADVANCED_FACE( '', ( #94, #95 ), #96, .F. );
#44 = PRESENTATION_STYLE_ASSIGNMENT( ( #97 ) );
#45 = ADVANCED_FACE( '', ( #98, #99 ), #100, .T. );
#46 = PRESENTATION_STYLE_ASSIGNMENT( ( #101 ) );
#47 = ADVANCED_FACE( '', ( #102, #103 ), #104, .T. );
#48 = PRESENTATION_STYLE_ASSIGNMENT( ( #105 ) );
#49 = ADVANCED_FACE( '', ( #106, #107 ), #108, .T. );
#50 = PRESENTATION_STYLE_ASSIGNMENT( ( #109 ) );
#51 = ADVANCED_FACE( '', ( #110, #111 ), #112, .F. );
#52 = PRESENTATION_STYLE_ASSIGNMENT( ( #113 ) );
#53 = ADVANCED_FACE( '', ( #114, #115 ), #116, .T. );
#54 = PRESENTATION_STYLE_ASSIGNMENT( ( #117 ) );
#55 = ADVANCED_FACE( '', ( #118, #119 ), #120, .F. );
#56 = PRESENTATION_STYLE_ASSIGNMENT( ( #121 ) );
#57 = ADVANCED_FACE( '', ( #122, #123 ), #124, .F. );
#58 = PRESENTATION_STYLE_ASSIGNMENT( ( #125 ) );
#59 = ADVANCED_FACE( '', ( #126, #127 ), #128, .F. );
#60 = PRESENTATION_STYLE_ASSIGNMENT( ( #129 ) );
#61 = ADVANCED_FACE( '', ( #130 ), #131, .F. );
#62 = PRESENTATION_STYLE_ASSIGNMENT( ( #132 ) );
#63 = ADVANCED_FACE( '', ( #133 ), #134, .F. );
#64 = PRESENTATION_STYLE_ASSIGNMENT( ( #135 ) );
#65 = ADVANCED_FACE( '', ( #136, #137 ), #138, .T. );
#66 = PRESENTATION_STYLE_ASSIGNMENT( ( #139 ) );
#67 = ADVANCED_FACE( '', ( #140, #141 ), #142, .T. );
#68 = PRODUCT( '_K1163.05X30', '_K1163.05X30', 'PART-_K1163.05X30-DESC', ( #143 ) );
#69 = PRODUCT_DEFINITION( 'NONE', 'NONE', #144, #2 );
#70 = MANIFOLD_SOLID_BREP( '_K1163.05X30', #145 );
#71 = AXIS2_PLACEMENT_3D( '', #146, #147, #148 );
#74 = LENGTH_MEASURE_WITH_UNIT( LENGTH_MEASURE( 1.00000000000000 ), #149 );
#77 = DIMENSIONAL_EXPONENTS( 1.00000000000000, 0.000000000000000, 0.000000000000000, 0.000000000000000, 0.000000000000000, 0.000000000000000, 0.000000000000000 );
#79 = DIMENSIONAL_EXPONENTS( 0.000000000000000, 0.000000000000000, 0.000000000000000, 0.000000000000000, 0.000000000000000, 0.000000000000000, 0.000000000000000 );
#85 = SURFACE_STYLE_USAGE( .BOTH., #150 );
#86 = FACE_OUTER_BOUND( '', #151, .T. );
#87 = FACE_OUTER_BOUND( '', #152, .T. );
#88 = CYLINDRICAL_SURFACE( '', #153, 2.50000000000000 );
#89 = SURFACE_STYLE_USAGE( .BOTH., #154 );
#90 = FACE_OUTER_BOUND( '', #155, .T. );
#91 = FACE_OUTER_BOUND( '', #156, .T. );
#92 = CYLINDRICAL_SURFACE( '', #157, 1.85000000000000 );
#93 = SURFACE_STYLE_USAGE( .BOTH., #158 );
#94 = FACE_BOUND( '', #159, .T. );
#95 = FACE_OUTER_BOUND( '', #160, .T. );
#96 = PLANE( '', #161 );
#97 = SURFACE_STYLE_USAGE( .BOTH., #162 );
#98 = FACE_OUTER_BOUND( '', #163, .T. );
#99 = FACE_BOUND( '', #164, .T. );
#100 = CONICAL_SURFACE( '', #165, 9.60000000000000, 0.785398163400000 );
#101 = SURFACE_STYLE_USAGE( .BOTH., #166 );
#102 = FACE_OUTER_BOUND( '', #167, .T. );
#103 = FACE_OUTER_BOUND( '', #168, .T. );
#104 = CYLINDRICAL_SURFACE( '', #169, 2.50000000000000 );
#105 = SURFACE_STYLE_USAGE( .BOTH., #170 );
#106 = FACE_OUTER_BOUND( '', #171, .T. );
#107 = FACE_BOUND( '', #172, .T. );
#108 = CONICAL_SURFACE( '', #173, 2.08237672900000, 1.13838855120000 );
#109 = SURFACE_STYLE_USAGE( .BOTH., #174 );
#110 = FACE_OUTER_BOUND( '', #175, .T. );
#111 = FACE_OUTER_BOUND( '', #176, .T. );
#112 = TOROIDAL_SURFACE( '', #177, 2.25000000000000, 0.400000000000000 );
#113 = SURFACE_STYLE_USAGE( .BOTH., #178 );
#114 = FACE_BOUND( '', #179, .T. );
#115 = FACE_OUTER_BOUND( '', #180, .T. );
#116 = CONICAL_SURFACE( '', #181, 10.0000000000000, 0.785398163400000 );
#117 = SURFACE_STYLE_USAGE( .BOTH., #182 );
#118 = FACE_BOUND( '', #183, .T. );
#119 = FACE_OUTER_BOUND( '', #184, .T. );
#120 = PLANE( '', #185 );
#121 = SURFACE_STYLE_USAGE( .BOTH., #186 );
#122 = FACE_OUTER_BOUND( '', #187, .T. );
#123 = FACE_OUTER_BOUND( '', #188, .T. );
#124 = TOROIDAL_SURFACE( '', #189, 2.25000000000000, 0.400000000000000 );
#125 = SURFACE_STYLE_USAGE( .BOTH., #190 );
#126 = FACE_OUTER_BOUND( '', #191, .T. );
#127 = FACE_OUTER_BOUND( '', #192, .T. );
#128 = TOROIDAL_SURFACE( '', #193, 3.50000000000000, 1.00000000000000 );
#129 = SURFACE_STYLE_USAGE( .BOTH., #194 );
#130 = FACE_OUTER_BOUND( '', #195, .T. );
#131 = PLANE( '', #196 );
#132 = SURFACE_STYLE_USAGE( .BOTH., #197 );
#133 = FACE_OUTER_BOUND( '', #198, .T. );
#134 = PLANE( '', #199 );
#135 = SURFACE_STYLE_USAGE( .BOTH., #200 );
#136 = FACE_OUTER_BOUND( '', #201, .T. );
#137 = FACE_OUTER_BOUND( '', #202, .T. );
#138 = CYLINDRICAL_SURFACE( '', #203, 10.0000000000000 );
#139 = SURFACE_STYLE_USAGE( .BOTH., #204 );
#140 = FACE_BOUND( '', #205, .T. );
#141 = FACE_OUTER_BOUND( '', #206, .T. );
#142 = CONICAL_SURFACE( '', #207, 2.50000000000000, 0.785398163400000 );
#143 = PRODUCT_CONTEXT( '', #25, 'mechanical' );
#144 = PRODUCT_DEFINITION_FORMATION_WITH_SPECIFIED_SOURCE( ' ', 'NONE', #68, .NOT_KNOWN. );
#145 = CLOSED_SHELL( '', ( #67, #39, #49, #57, #41, #51, #43, #47, #59, #55, #53, #65, #45, #61, #63 ) );
#146 = CARTESIAN_POINT( '', ( 0.000000000000000, 0.000000000000000, 0.000000000000000 ) );
#147 = DIRECTION( '', ( 0.000000000000000, 0.000000000000000, 1.00000000000000 ) );
#148 = DIRECTION( '', ( 1.00000000000000, 0.000000000000000, 0.000000000000000 ) );
#149 =  ( LENGTH_UNIT(  )NAMED_UNIT( #77 )SI_UNIT( .MILLI., .METRE. ) );
#150 = SURFACE_SIDE_STYLE( '', ( #209 ) );
#151 = EDGE_LOOP( '', ( #210 ) );
#152 = EDGE_LOOP( '', ( #211 ) );
#153 = AXIS2_PLACEMENT_3D( '', #212, #213, #214 );
#154 = SURFACE_SIDE_STYLE( '', ( #215 ) );
#155 = EDGE_LOOP( '', ( #216 ) );
#156 = EDGE_LOOP( '', ( #217 ) );
#157 = AXIS2_PLACEMENT_3D( '', #218, #219, #220 );
#158 = SURFACE_SIDE_STYLE( '', ( #221 ) );
#159 = EDGE_LOOP( '', ( #222 ) );
#160 = EDGE_LOOP( '', ( #223 ) );
#161 = AXIS2_PLACEMENT_3D( '', #224, #225, #226 );
#162 = SURFACE_SIDE_STYLE( '', ( #227 ) );
#163 = EDGE_LOOP( '', ( #228 ) );
#164 = EDGE_LOOP( '', ( #229 ) );
#165 = AXIS2_PLACEMENT_3D( '', #230, #231, #232 );
#166 = SURFACE_SIDE_STYLE( '', ( #233 ) );
#167 = EDGE_LOOP( '', ( #234 ) );
#168 = EDGE_LOOP( '', ( #235 ) );
#169 = AXIS2_PLACEMENT_3D( '', #236, #237, #238 );
#170 = SURFACE_SIDE_STYLE( '', ( #239 ) );
#171 = EDGE_LOOP( '', ( #240 ) );
#172 = EDGE_LOOP( '', ( #241 ) );
#173 = AXIS2_PLACEMENT_3D( '', #242, #243, #244 );
#174 = SURFACE_SIDE_STYLE( '', ( #245 ) );
#175 = EDGE_LOOP( '', ( #246 ) );
#176 = EDGE_LOOP( '', ( #247 ) );
#177 = AXIS2_PLACEMENT_3D( '', #248, #249, #250 );
#178 = SURFACE_SIDE_STYLE( '', ( #251 ) );
#179 = EDGE_LOOP( '', ( #252 ) );
#180 = EDGE_LOOP( '', ( #253 ) );
#181 = AXIS2_PLACEMENT_3D( '', #254, #255, #256 );
#182 = SURFACE_SIDE_STYLE( '', ( #257 ) );
#183 = EDGE_LOOP( '', ( #258 ) );
#184 = EDGE_LOOP( '', ( #259 ) );
#185 = AXIS2_PLACEMENT_3D( '', #260, #261, #262 );
#186 = SURFACE_SIDE_STYLE( '', ( #263 ) );
#187 = EDGE_LOOP( '', ( #264 ) );
#188 = EDGE_LOOP( '', ( #265 ) );
#189 = AXIS2_PLACEMENT_3D( '', #266, #267, #268 );
#190 = SURFACE_SIDE_STYLE( '', ( #269 ) );
#191 = EDGE_LOOP( '', ( #270 ) );
#192 = EDGE_LOOP( '', ( #271 ) );
#193 = AXIS2_PLACEMENT_3D( '', #272, #273, #274 );
#194 = SURFACE_SIDE_STYLE( '', ( #275 ) );
#195 = EDGE_LOOP( '', ( #276 ) );
#196 = AXIS2_PLACEMENT_3D( '', #277, #278, #279 );
#197 = SURFACE_SIDE_STYLE( '', ( #280 ) );
#198 = EDGE_LOOP( '', ( #281 ) );
#199 = AXIS2_PLACEMENT_3D( '', #282, #283, #284 );
#200 = SURFACE_SIDE_STYLE( '', ( #285 ) );
#201 = EDGE_LOOP( '', ( #286 ) );
#202 = EDGE_LOOP( '', ( #287 ) );
#203 = AXIS2_PLACEMENT_3D( '', #288, #289, #290 );
#204 = SURFACE_SIDE_STYLE( '', ( #291 ) );
#205 = EDGE_LOOP( '', ( #292 ) );
#206 = EDGE_LOOP( '', ( #293 ) );
#207 = AXIS2_PLACEMENT_3D( '', #294, #295, #296 );
#209 = SURFACE_STYLE_FILL_AREA( #297 );
#210 = ORIENTED_EDGE( '', *, *, #298, .F. );
#211 = ORIENTED_EDGE( '', *, *, #299, .T. );
#212 = CARTESIAN_POINT( '', ( 30.0000000000000, 0.000000000000000, 0.000000000000000 ) );
#213 = DIRECTION( '', ( -1.00000000000000, -0.000000000000000, 0.000000000000000 ) );
#214 = DIRECTION( '', ( -0.000000000000000, 0.000000000000000, -1.00000000000000 ) );
#215 = SURFACE_STYLE_FILL_AREA( #300 );
#216 = ORIENTED_EDGE( '', *, *, #301, .F. );
#217 = ORIENTED_EDGE( '', *, *, #302, .T. );
#218 = CARTESIAN_POINT( '', ( 30.0000000000000, 0.000000000000000, 0.000000000000000 ) );
#219 = DIRECTION( '', ( -1.00000000000000, -0.000000000000000, 0.000000000000000 ) );
#220 = DIRECTION( '', ( -0.000000000000000, 0.000000000000000, -1.00000000000000 ) );
#221 = SURFACE_STYLE_FILL_AREA( #303 );
#222 = ORIENTED_EDGE( '', *, *, #304, .F. );
#223 = ORIENTED_EDGE( '', *, *, #305, .T. );
#224 = CARTESIAN_POINT( '', ( 3.00000000000000, 2.50000000000000, 0.000000000000000 ) );
#225 = DIRECTION( '', ( -1.00000000000000, 0.000000000000000, 0.000000000000000 ) );
#226 = DIRECTION( '', ( 0.000000000000000, 0.000000000000000, 1.00000000000000 ) );
#227 = SURFACE_STYLE_FILL_AREA( #306 );
#228 = ORIENTED_EDGE( '', *, *, #307, .F. );
#229 = ORIENTED_EDGE( '', *, *, #308, .T. );
#230 = CARTESIAN_POINT( '', ( -4.00000000000000, 0.000000000000000, 0.000000000000000 ) );
#231 = DIRECTION( '', ( 1.00000000000000, -0.000000000000000, -0.000000000000000 ) );
#232 = DIRECTION( '', ( -0.000000000000000, 0.000000000000000, -1.00000000000000 ) );
#233 = SURFACE_STYLE_FILL_AREA( #309 );
#234 = ORIENTED_EDGE( '', *, *, #305, .F. );
#235 = ORIENTED_EDGE( '', *, *, #310, .T. );
#236 = CARTESIAN_POINT( '', ( 30.0000000000000, 0.000000000000000, 0.000000000000000 ) );
#237 = DIRECTION( '', ( -1.00000000000000, -0.000000000000000, 0.000000000000000 ) );
#238 = DIRECTION( '', ( -0.000000000000000, 0.000000000000000, -1.00000000000000 ) );
#239 = SURFACE_STYLE_FILL_AREA( #311 );
#240 = ORIENTED_EDGE( '', *, *, #299, .F. );
#241 = ORIENTED_EDGE( '', *, *, #312, .T. );
#242 = CARTESIAN_POINT( '', ( 4.80725079800706, 0.000000000000000, 0.000000000000000 ) );
#243 = DIRECTION( '', ( 1.00000000000000, -0.000000000000000, -0.000000000000000 ) );
#244 = DIRECTION( '', ( -0.000000000000000, 0.000000000000000, -1.00000000000000 ) );
#245 = SURFACE_STYLE_FILL_AREA( #313 );
#246 = ORIENTED_EDGE( '', *, *, #302, .F. );
#247 = ORIENTED_EDGE( '', *, *, #304, .T. );
#248 = CARTESIAN_POINT( '', ( 3.40000000000000, 0.000000000000000, 0.000000000000000 ) );
#249 = DIRECTION( '', ( 1.00000000000000, 0.000000000000000, -0.000000000000000 ) );
#250 = DIRECTION( '', ( -0.000000000000000, 0.000000000000000, -1.00000000000000 ) );
#251 = SURFACE_STYLE_FILL_AREA( #314 );
#252 = ORIENTED_EDGE( '', *, *, #315, .F. );
#253 = ORIENTED_EDGE( '', *, *, #316, .T. );
#254 = CARTESIAN_POINT( '', ( -0.400000000000001, 0.000000000000000, 0.000000000000000 ) );
#255 = DIRECTION( '', ( -1.00000000000000, 0.000000000000000, -0.000000000000000 ) );
#256 = DIRECTION( '', ( 0.000000000000000, 0.000000000000000, 1.00000000000000 ) );
#257 = SURFACE_STYLE_FILL_AREA( #317 );
#258 = ORIENTED_EDGE( '', *, *, #318, .F. );
#259 = ORIENTED_EDGE( '', *, *, #315, .T. );
#260 = CARTESIAN_POINT( '', ( 0.000000000000000, 9.60000000000000, 0.000000000000000 ) );
#261 = DIRECTION( '', ( -1.00000000000000, 0.000000000000000, 0.000000000000000 ) );
#262 = DIRECTION( '', ( 0.000000000000000, 0.000000000000000, 1.00000000000000 ) );
#263 = SURFACE_STYLE_FILL_AREA( #319 );
#264 = ORIENTED_EDGE( '', *, *, #312, .F. );
#265 = ORIENTED_EDGE( '', *, *, #301, .T. );
#266 = CARTESIAN_POINT( '', ( 4.44406704420688, 0.000000000000000, 0.000000000000000 ) );
#267 = DIRECTION( '', ( 1.00000000000000, 0.000000000000000, -0.000000000000000 ) );
#268 = DIRECTION( '', ( -0.000000000000000, 0.000000000000000, -1.00000000000000 ) );
#269 = SURFACE_STYLE_FILL_AREA( #320 );
#270 = ORIENTED_EDGE( '', *, *, #310, .F. );
#271 = ORIENTED_EDGE( '', *, *, #318, .T. );
#272 = CARTESIAN_POINT( '', ( 1.00000000000000, 0.000000000000000, 0.000000000000000 ) );
#273 = DIRECTION( '', ( 1.00000000000000, 0.000000000000000, -0.000000000000000 ) );
#274 = DIRECTION( '', ( -0.000000000000000, 0.000000000000000, -1.00000000000000 ) );
#275 = SURFACE_STYLE_FILL_AREA( #321 );
#276 = ORIENTED_EDGE( '', *, *, #308, .F. );
#277 = CARTESIAN_POINT( '', ( -4.00000000000000, 0.000000000000000, 0.000000000000000 ) );
#278 = DIRECTION( '', ( 1.00000000000000, 0.000000000000000, -0.000000000000000 ) );
#279 = DIRECTION( '', ( -0.000000000000000, 0.000000000000000, -1.00000000000000 ) );
#280 = SURFACE_STYLE_FILL_AREA( #322 );
#281 = ORIENTED_EDGE( '', *, *, #323, .T. );
#282 = CARTESIAN_POINT( '', ( 30.0000000000000, 2.00950000000000, 0.000000000000000 ) );
#283 = DIRECTION( '', ( -1.00000000000000, 0.000000000000000, 0.000000000000000 ) );
#284 = DIRECTION( '', ( 0.000000000000000, 0.000000000000000, 1.00000000000000 ) );
#285 = SURFACE_STYLE_FILL_AREA( #324 );
#286 = ORIENTED_EDGE( '', *, *, #316, .F. );
#287 = ORIENTED_EDGE( '', *, *, #307, .T. );
#288 = CARTESIAN_POINT( '', ( 30.0000000000000, 0.000000000000000, 0.000000000000000 ) );
#289 = DIRECTION( '', ( -1.00000000000000, -0.000000000000000, 0.000000000000000 ) );
#290 = DIRECTION( '', ( -0.000000000000000, 0.000000000000000, -1.00000000000000 ) );
#291 = SURFACE_STYLE_FILL_AREA( #325 );
#292 = ORIENTED_EDGE( '', *, *, #323, .F. );
#293 = ORIENTED_EDGE( '', *, *, #298, .T. );
#294 = CARTESIAN_POINT( '', ( 29.5095000000000, 0.000000000000000, 0.000000000000000 ) );
#295 = DIRECTION( '', ( -1.00000000000000, 0.000000000000000, -0.000000000000000 ) );
#296 = DIRECTION( '', ( 0.000000000000000, 0.000000000000000, 1.00000000000000 ) );
#297 = FILL_AREA_STYLE( '', ( #326 ) );
#298 = EDGE_CURVE( '', #327, #327, #328, .T. );
#299 = EDGE_CURVE( '', #329, #329, #330, .T. );
#300 = FILL_AREA_STYLE( '', ( #331 ) );
#301 = EDGE_CURVE( '', #332, #332, #333, .T. );
#302 = EDGE_CURVE( '', #334, #334, #335, .T. );
#303 = FILL_AREA_STYLE( '', ( #336 ) );
#304 = EDGE_CURVE( '', #337, #337, #338, .T. );
#305 = EDGE_CURVE( '', #339, #339, #340, .T. );
#306 = FILL_AREA_STYLE( '', ( #341 ) );
#307 = EDGE_CURVE( '', #342, #342, #343, .T. );
#308 = EDGE_CURVE( '', #344, #344, #345, .T. );
#309 = FILL_AREA_STYLE( '', ( #346 ) );
#310 = EDGE_CURVE( '', #347, #347, #348, .T. );
#311 = FILL_AREA_STYLE( '', ( #349 ) );
#312 = EDGE_CURVE( '', #350, #350, #351, .T. );
#313 = FILL_AREA_STYLE( '', ( #352 ) );
#314 = FILL_AREA_STYLE( '', ( #353 ) );
#315 = EDGE_CURVE( '', #354, #354, #355, .T. );
#316 = EDGE_CURVE( '', #356, #356, #357, .T. );
#317 = FILL_AREA_STYLE( '', ( #358 ) );
#318 = EDGE_CURVE( '', #359, #359, #360, .T. );
#319 = FILL_AREA_STYLE( '', ( #361 ) );
#320 = FILL_AREA_STYLE( '', ( #362 ) );
#321 = FILL_AREA_STYLE( '', ( #363 ) );
#322 = FILL_AREA_STYLE( '', ( #364 ) );
#323 = EDGE_CURVE( '', #365, #365, #366, .T. );
#324 = FILL_AREA_STYLE( '', ( #367 ) );
#325 = FILL_AREA_STYLE( '', ( #368 ) );
#326 = FILL_AREA_STYLE_COLOUR( '', #369 );
#327 = VERTEX_POINT( '', #370 );
#328 = CIRCLE( '', #371, 2.50000000000000 );
#329 = VERTEX_POINT( '', #372 );
#330 = CIRCLE( '', #373, 2.50000000000000 );
#331 = FILL_AREA_STYLE_COLOUR( '', #374 );
#332 = VERTEX_POINT( '', #375 );
#333 = CIRCLE( '', #376, 1.85000000000000 );
#334 = VERTEX_POINT( '', #377 );
#335 = CIRCLE( '', #378, 1.85000000000000 );
#336 = FILL_AREA_STYLE_COLOUR( '', #379 );
#337 = VERTEX_POINT( '', #380 );
#338 = CIRCLE( '', #381, 2.25000000000000 );
#339 = VERTEX_POINT( '', #382 );
#340 = CIRCLE( '', #383, 2.50000000000000 );
#341 = FILL_AREA_STYLE_COLOUR( '', #384 );
#342 = VERTEX_POINT( '', #385 );
#343 = CIRCLE( '', #386, 10.0000000000000 );
#344 = VERTEX_POINT( '', #387 );
#345 = CIRCLE( '', #388, 9.60000000000000 );
#346 = FILL_AREA_STYLE_COLOUR( '', #389 );
#347 = VERTEX_POINT( '', #390 );
#348 = CIRCLE( '', #391, 2.50000000000000 );
#349 = FILL_AREA_STYLE_COLOUR( '', #392 );
#350 = VERTEX_POINT( '', #393 );
#351 = CIRCLE( '', #394, 2.08237672900000 );
#352 = FILL_AREA_STYLE_COLOUR( '', #395 );
#353 = FILL_AREA_STYLE_COLOUR( '', #396 );
#354 = VERTEX_POINT( '', #397 );
#355 = CIRCLE( '', #398, 9.60000000000000 );
#356 = VERTEX_POINT( '', #399 );
#357 = CIRCLE( '', #400, 10.0000000000000 );
#358 = FILL_AREA_STYLE_COLOUR( '', #401 );
#359 = VERTEX_POINT( '', #402 );
#360 = CIRCLE( '', #403, 3.50000000000000 );
#361 = FILL_AREA_STYLE_COLOUR( '', #404 );
#362 = FILL_AREA_STYLE_COLOUR( '', #405 );
#363 = FILL_AREA_STYLE_COLOUR( '', #406 );
#364 = FILL_AREA_STYLE_COLOUR( '', #407 );
#365 = VERTEX_POINT( '', #408 );
#366 = CIRCLE( '', #409, 2.00950000000000 );
#367 = FILL_AREA_STYLE_COLOUR( '', #410 );
#368 = FILL_AREA_STYLE_COLOUR( '', #411 );
#369 = COLOUR_RGB( '', 0.689999997600000, 0.689999997600000, 0.689999997600000 );
#370 = CARTESIAN_POINT( '', ( 29.5095000000000, 0.000000000000000, -2.50000000000000 ) );
#371 = AXIS2_PLACEMENT_3D( '', #412, #413, #414 );
#372 = CARTESIAN_POINT( '', ( 5.00000000000000, 0.000000000000000, -2.50000000000000 ) );
#373 = AXIS2_PLACEMENT_3D( '', #415, #416, #417 );
#374 = COLOUR_RGB( '', 0.689999997600000, 0.689999997600000, 0.689999997600000 );
#375 = CARTESIAN_POINT( '', ( 4.44406704420688, 0.000000000000000, -1.85000000000000 ) );
#376 = AXIS2_PLACEMENT_3D( '', #418, #419, #420 );
#377 = CARTESIAN_POINT( '', ( 3.40000000000000, 0.000000000000000, -1.85000000000000 ) );
#378 = AXIS2_PLACEMENT_3D( '', #421, #422, #423 );
#379 = COLOUR_RGB( '', 0.689999997600000, 0.689999997600000, 0.689999997600000 );
#380 = CARTESIAN_POINT( '', ( 3.00000000000000, 0.000000000000000, -2.25000000000000 ) );
#381 = AXIS2_PLACEMENT_3D( '', #424, #425, #426 );
#382 = CARTESIAN_POINT( '', ( 3.00000000000000, 0.000000000000000, -2.50000000000000 ) );
#383 = AXIS2_PLACEMENT_3D( '', #427, #428, #429 );
#384 = COLOUR_RGB( '', 0.689999997600000, 0.689999997600000, 0.689999997600000 );
#385 = CARTESIAN_POINT( '', ( -3.60000000000000, 0.000000000000000, -10.0000000000000 ) );
#386 = AXIS2_PLACEMENT_3D( '', #430, #431, #432 );
#387 = CARTESIAN_POINT( '', ( -4.00000000000000, 0.000000000000000, -9.60000000000000 ) );
#388 = AXIS2_PLACEMENT_3D( '', #433, #434, #435 );
#389 = COLOUR_RGB( '', 0.689999997600000, 0.689999997600000, 0.689999997600000 );
#390 = CARTESIAN_POINT( '', ( 1.00000000000000, 0.000000000000000, -2.50000000000000 ) );
#391 = AXIS2_PLACEMENT_3D( '', #436, #437, #438 );
#392 = COLOUR_RGB( '', 0.689999997600000, 0.689999997600000, 0.689999997600000 );
#393 = CARTESIAN_POINT( '', ( 4.80725079800706, 0.000000000000000, -2.08237672901530 ) );
#394 = AXIS2_PLACEMENT_3D( '', #439, #440, #441 );
#395 = COLOUR_RGB( '', 0.689999997600000, 0.689999997600000, 0.689999997600000 );
#396 = COLOUR_RGB( '', 0.689999997600000, 0.689999997600000, 0.689999997600000 );
#397 = CARTESIAN_POINT( '', ( 0.000000000000000, 0.000000000000000, -9.60000000000000 ) );
#398 = AXIS2_PLACEMENT_3D( '', #442, #443, #444 );
#399 = CARTESIAN_POINT( '', ( -0.400000000000001, 0.000000000000000, -10.0000000000000 ) );
#400 = AXIS2_PLACEMENT_3D( '', #445, #446, #447 );
#401 = COLOUR_RGB( '', 0.689999997600000, 0.689999997600000, 0.689999997600000 );
#402 = CARTESIAN_POINT( '', ( 0.000000000000000, 0.000000000000000, -3.50000000000000 ) );
#403 = AXIS2_PLACEMENT_3D( '', #448, #449, #450 );
#404 = COLOUR_RGB( '', 0.689999997600000, 0.689999997600000, 0.689999997600000 );
#405 = COLOUR_RGB( '', 0.689999997600000, 0.689999997600000, 0.689999997600000 );
#406 = COLOUR_RGB( '', 0.689999997600000, 0.689999997600000, 0.689999997600000 );
#407 = COLOUR_RGB( '', 0.689999997600000, 0.689999997600000, 0.689999997600000 );
#408 = CARTESIAN_POINT( '', ( 30.0000000000000, 0.000000000000000, -2.00950000000000 ) );
#409 = AXIS2_PLACEMENT_3D( '', #451, #452, #453 );
#410 = COLOUR_RGB( '', 0.689999997600000, 0.689999997600000, 0.689999997600000 );
#411 = COLOUR_RGB( '', 0.689999997600000, 0.689999997600000, 0.689999997600000 );
#412 = CARTESIAN_POINT( '', ( 29.5095000000000, 0.000000000000000, 0.000000000000000 ) );
#413 = DIRECTION( '', ( 1.00000000000000, 0.000000000000000, -0.000000000000000 ) );
#414 = DIRECTION( '', ( -0.000000000000000, 0.000000000000000, -1.00000000000000 ) );
#415 = CARTESIAN_POINT( '', ( 5.00000000000000, 0.000000000000000, 0.000000000000000 ) );
#416 = DIRECTION( '', ( 1.00000000000000, 0.000000000000000, -0.000000000000000 ) );
#417 = DIRECTION( '', ( -0.000000000000000, 0.000000000000000, -1.00000000000000 ) );
#418 = CARTESIAN_POINT( '', ( 4.44406704420688, 0.000000000000000, 0.000000000000000 ) );
#419 = DIRECTION( '', ( 1.00000000000000, 0.000000000000000, -0.000000000000000 ) );
#420 = DIRECTION( '', ( -0.000000000000000, 0.000000000000000, -1.00000000000000 ) );
#421 = CARTESIAN_POINT( '', ( 3.40000000000000, 0.000000000000000, 0.000000000000000 ) );
#422 = DIRECTION( '', ( 1.00000000000000, 0.000000000000000, -0.000000000000000 ) );
#423 = DIRECTION( '', ( -0.000000000000000, 0.000000000000000, -1.00000000000000 ) );
#424 = CARTESIAN_POINT( '', ( 3.00000000000000, 0.000000000000000, 0.000000000000000 ) );
#425 = DIRECTION( '', ( 1.00000000000000, 0.000000000000000, -0.000000000000000 ) );
#426 = DIRECTION( '', ( -0.000000000000000, 0.000000000000000, -1.00000000000000 ) );
#427 = CARTESIAN_POINT( '', ( 3.00000000000000, 0.000000000000000, 0.000000000000000 ) );
#428 = DIRECTION( '', ( 1.00000000000000, 0.000000000000000, -0.000000000000000 ) );
#429 = DIRECTION( '', ( -0.000000000000000, 0.000000000000000, -1.00000000000000 ) );
#430 = CARTESIAN_POINT( '', ( -3.60000000000000, 0.000000000000000, 0.000000000000000 ) );
#431 = DIRECTION( '', ( 1.00000000000000, 0.000000000000000, -0.000000000000000 ) );
#432 = DIRECTION( '', ( -0.000000000000000, 0.000000000000000, -1.00000000000000 ) );
#433 = CARTESIAN_POINT( '', ( -4.00000000000000, 0.000000000000000, 0.000000000000000 ) );
#434 = DIRECTION( '', ( 1.00000000000000, 0.000000000000000, -0.000000000000000 ) );
#435 = DIRECTION( '', ( -0.000000000000000, 0.000000000000000, -1.00000000000000 ) );
#436 = CARTESIAN_POINT( '', ( 1.00000000000000, 0.000000000000000, 0.000000000000000 ) );
#437 = DIRECTION( '', ( 1.00000000000000, 0.000000000000000, -0.000000000000000 ) );
#438 = DIRECTION( '', ( -0.000000000000000, 0.000000000000000, -1.00000000000000 ) );
#439 = CARTESIAN_POINT( '', ( 4.80725079800706, 0.000000000000000, 0.000000000000000 ) );
#440 = DIRECTION( '', ( 1.00000000000000, 0.000000000000000, -0.000000000000000 ) );
#441 = DIRECTION( '', ( -0.000000000000000, 0.000000000000000, -1.00000000000000 ) );
#442 = CARTESIAN_POINT( '', ( 0.000000000000000, 0.000000000000000, 0.000000000000000 ) );
#443 = DIRECTION( '', ( 1.00000000000000, 0.000000000000000, -0.000000000000000 ) );
#444 = DIRECTION( '', ( -0.000000000000000, 0.000000000000000, -1.00000000000000 ) );
#445 = CARTESIAN_POINT( '', ( -0.400000000000001, 0.000000000000000, 0.000000000000000 ) );
#446 = DIRECTION( '', ( 1.00000000000000, 0.000000000000000, -0.000000000000000 ) );
#447 = DIRECTION( '', ( -0.000000000000000, 0.000000000000000, -1.00000000000000 ) );
#448 = CARTESIAN_POINT( '', ( 0.000000000000000, 0.000000000000000, 0.000000000000000 ) );
#449 = DIRECTION( '', ( 1.00000000000000, 0.000000000000000, -0.000000000000000 ) );
#450 = DIRECTION( '', ( -0.000000000000000, 0.000000000000000, -1.00000000000000 ) );
#451 = CARTESIAN_POINT( '', ( 30.0000000000000, 0.000000000000000, 0.000000000000000 ) );
#452 = DIRECTION( '', ( 1.00000000000000, 0.000000000000000, -0.000000000000000 ) );
#453 = DIRECTION( '', ( -0.000000000000000, 0.000000000000000, -1.00000000000000 ) );
ENDSEC;
END-ISO-10303-21;
