ISO-10303-21;
HEADER;
FILE_DESCRIPTION( ( 'STEP AP214' ), '1' );
FILE_NAME( '//goodhand-server/Shared Folders/GoodHand Data/Kipp CAD/K1152/K1152.201230.stp', '2020-12-10T10:25:40', ( '' ), ( '' ), ' ', 'PARTsolutions', ' ' );
FILE_SCHEMA( ( 'AUTOMOTIVE_DESIGN { 1 0 10303 214 1 1 1 1 }' ) );
ENDSEC;
DATA;
#1 = MECHANICAL_DESIGN_GEOMETRIC_PRESENTATION_REPRESENTATION( ' ', ( #10, #11, #12, #13, #14, #15, #16, #17, #18, #19, #20, #21, #22, #23, #24, #25 ), #6 );
#2 = PRODUCT_DEFINITION_CONTEXT( '', #26, 'design' );
#3 = APPLICATION_PROTOCOL_DEFINITION( 'international standard', 'automotive_design', 2001, #26 );
#4 = PRODUCT_CATEGORY_RELATIONSHIP( 'NONE', 'NONE', #27, #28 );
#5 = SHAPE_DEFINITION_REPRESENTATION( #29, #30 );
#6 =  ( GEOMETRIC_REPRESENTATION_CONTEXT( 3 )GLOBAL_UNCERTAINTY_ASSIGNED_CONTEXT( ( #33 ) )GLOBAL_UNIT_ASSIGNED_CONTEXT( ( #35, #36, #37 ) )REPRESENTATION_CONTEXT( 'NONE', 'WORKSPACE' ) );
#10 = STYLED_ITEM( '', ( #39 ), #40 );
#11 = STYLED_ITEM( '', ( #41 ), #42 );
#12 = STYLED_ITEM( '', ( #43 ), #44 );
#13 = STYLED_ITEM( '', ( #45 ), #46 );
#14 = STYLED_ITEM( '', ( #47 ), #48 );
#15 = STYLED_ITEM( '', ( #49 ), #50 );
#16 = STYLED_ITEM( '', ( #51 ), #52 );
#17 = STYLED_ITEM( '', ( #53 ), #54 );
#18 = STYLED_ITEM( '', ( #55 ), #56 );
#19 = STYLED_ITEM( '', ( #57 ), #58 );
#20 = STYLED_ITEM( '', ( #59 ), #60 );
#21 = STYLED_ITEM( '', ( #61 ), #62 );
#22 = STYLED_ITEM( '', ( #63 ), #64 );
#23 = STYLED_ITEM( '', ( #65 ), #66 );
#24 = STYLED_ITEM( '', ( #67 ), #68 );
#25 = STYLED_ITEM( '', ( #69 ), #70 );
#26 = APPLICATION_CONTEXT( 'core data for automotive mechanical design processes' );
#27 = PRODUCT_CATEGORY( 'part', 'NONE' );
#28 = PRODUCT_RELATED_PRODUCT_CATEGORY( 'detail', ' ', ( #71 ) );
#29 = PRODUCT_DEFINITION_SHAPE( 'NONE', 'NONE', #72 );
#30 = ADVANCED_BREP_SHAPE_REPRESENTATION( '_K1152.201230', ( #73, #74 ), #6 );
#33 = UNCERTAINTY_MEASURE_WITH_UNIT( LENGTH_MEASURE( 0.00100000000000000 ), #35, '', '' );
#35 =  ( CONVERSION_BASED_UNIT( 'MILLIMETRE', #77 )LENGTH_UNIT(  )NAMED_UNIT( #80 ) );
#36 =  ( NAMED_UNIT( #82 )PLANE_ANGLE_UNIT(  )SI_UNIT( $, .RADIAN. ) );
#37 =  ( NAMED_UNIT( #82 )SI_UNIT( $, .STERADIAN. )SOLID_ANGLE_UNIT(  ) );
#39 = PRESENTATION_STYLE_ASSIGNMENT( ( #88 ) );
#40 = ADVANCED_FACE( '', ( #89, #90 ), #91, .F. );
#41 = PRESENTATION_STYLE_ASSIGNMENT( ( #92 ) );
#42 = ADVANCED_FACE( '', ( #93, #94 ), #95, .T. );
#43 = PRESENTATION_STYLE_ASSIGNMENT( ( #96 ) );
#44 = ADVANCED_FACE( '', ( #97 ), #98, .F. );
#45 = PRESENTATION_STYLE_ASSIGNMENT( ( #99 ) );
#46 = ADVANCED_FACE( '', ( #100, #101 ), #102, .T. );
#47 = PRESENTATION_STYLE_ASSIGNMENT( ( #103 ) );
#48 = ADVANCED_FACE( '', ( #104, #105 ), #106, .T. );
#49 = PRESENTATION_STYLE_ASSIGNMENT( ( #107 ) );
#50 = ADVANCED_FACE( '', ( #108, #109 ), #110, .T. );
#51 = PRESENTATION_STYLE_ASSIGNMENT( ( #111 ) );
#52 = ADVANCED_FACE( '', ( #112, #113 ), #114, .F. );
#53 = PRESENTATION_STYLE_ASSIGNMENT( ( #115 ) );
#54 = ADVANCED_FACE( '', ( #116, #117 ), #118, .F. );
#55 = PRESENTATION_STYLE_ASSIGNMENT( ( #119 ) );
#56 = ADVANCED_FACE( '', ( #120, #121 ), #122, .T. );
#57 = PRESENTATION_STYLE_ASSIGNMENT( ( #123 ) );
#58 = ADVANCED_FACE( '', ( #124 ), #125, .F. );
#59 = PRESENTATION_STYLE_ASSIGNMENT( ( #126 ) );
#60 = ADVANCED_FACE( '', ( #127, #128 ), #129, .F. );
#61 = PRESENTATION_STYLE_ASSIGNMENT( ( #130 ) );
#62 = ADVANCED_FACE( '', ( #131, #132 ), #133, .T. );
#63 = PRESENTATION_STYLE_ASSIGNMENT( ( #134 ) );
#64 = ADVANCED_FACE( '', ( #135, #136 ), #137, .F. );
#65 = PRESENTATION_STYLE_ASSIGNMENT( ( #138 ) );
#66 = ADVANCED_FACE( '', ( #139, #140 ), #141, .T. );
#67 = PRESENTATION_STYLE_ASSIGNMENT( ( #142 ) );
#68 = ADVANCED_FACE( '', ( #143, #144 ), #145, .F. );
#69 = PRESENTATION_STYLE_ASSIGNMENT( ( #146 ) );
#70 = ADVANCED_FACE( '', ( #147, #148 ), #149, .T. );
#71 = PRODUCT( '_K1152.201230', '_K1152.201230', 'PART-_K1152.201230-DESC', ( #150 ) );
#72 = PRODUCT_DEFINITION( 'NONE', 'NONE', #151, #2 );
#73 = MANIFOLD_SOLID_BREP( '_K1152.201230', #152 );
#74 = AXIS2_PLACEMENT_3D( '', #153, #154, #155 );
#77 = LENGTH_MEASURE_WITH_UNIT( LENGTH_MEASURE( 1.00000000000000 ), #156 );
#80 = DIMENSIONAL_EXPONENTS( 1.00000000000000, 0.000000000000000, 0.000000000000000, 0.000000000000000, 0.000000000000000, 0.000000000000000, 0.000000000000000 );
#82 = DIMENSIONAL_EXPONENTS( 0.000000000000000, 0.000000000000000, 0.000000000000000, 0.000000000000000, 0.000000000000000, 0.000000000000000, 0.000000000000000 );
#88 = SURFACE_STYLE_USAGE( .BOTH., #157 );
#89 = FACE_OUTER_BOUND( '', #158, .T. );
#90 = FACE_BOUND( '', #159, .T. );
#91 = PLANE( '', #160 );
#92 = SURFACE_STYLE_USAGE( .BOTH., #161 );
#93 = FACE_OUTER_BOUND( '', #162, .T. );
#94 = FACE_OUTER_BOUND( '', #163, .T. );
#95 = CYLINDRICAL_SURFACE( '', #164, 10.0000000000000 );
#96 = SURFACE_STYLE_USAGE( .BOTH., #165 );
#97 = FACE_OUTER_BOUND( '', #166, .T. );
#98 = PLANE( '', #167 );
#99 = SURFACE_STYLE_USAGE( .BOTH., #168 );
#100 = FACE_OUTER_BOUND( '', #169, .T. );
#101 = FACE_OUTER_BOUND( '', #170, .T. );
#102 = CYLINDRICAL_SURFACE( '', #171, 10.0000000000000 );
#103 = SURFACE_STYLE_USAGE( .BOTH., #172 );
#104 = FACE_OUTER_BOUND( '', #173, .T. );
#105 = FACE_OUTER_BOUND( '', #174, .T. );
#106 = CYLINDRICAL_SURFACE( '', #175, 10.0000000000000 );
#107 = SURFACE_STYLE_USAGE( .BOTH., #176 );
#108 = FACE_OUTER_BOUND( '', #177, .T. );
#109 = FACE_OUTER_BOUND( '', #178, .T. );
#110 = CYLINDRICAL_SURFACE( '', #179, 9.75000000000000 );
#111 = SURFACE_STYLE_USAGE( .BOTH., #180 );
#112 = FACE_OUTER_BOUND( '', #181, .T. );
#113 = FACE_BOUND( '', #182, .T. );
#114 = PLANE( '', #183 );
#115 = SURFACE_STYLE_USAGE( .BOTH., #184 );
#116 = FACE_BOUND( '', #185, .T. );
#117 = FACE_OUTER_BOUND( '', #186, .T. );
#118 = PLANE( '', #187 );
#119 = SURFACE_STYLE_USAGE( .BOTH., #188 );
#120 = FACE_OUTER_BOUND( '', #189, .T. );
#121 = FACE_OUTER_BOUND( '', #190, .T. );
#122 = TOROIDAL_SURFACE( '', #191, 9.75000000000000, 1.40000000000000 );
#123 = SURFACE_STYLE_USAGE( .BOTH., #192 );
#124 = FACE_OUTER_BOUND( '', #193, .T. );
#125 = PLANE( '', #194 );
#126 = SURFACE_STYLE_USAGE( .BOTH., #195 );
#127 = FACE_BOUND( '', #196, .T. );
#128 = FACE_OUTER_BOUND( '', #197, .T. );
#129 = PLANE( '', #198 );
#130 = SURFACE_STYLE_USAGE( .BOTH., #199 );
#131 = FACE_OUTER_BOUND( '', #200, .T. );
#132 = FACE_OUTER_BOUND( '', #201, .T. );
#133 = CYLINDRICAL_SURFACE( '', #202, 12.5000000000000 );
#134 = SURFACE_STYLE_USAGE( .BOTH., #203 );
#135 = FACE_OUTER_BOUND( '', #204, .T. );
#136 = FACE_BOUND( '', #205, .T. );
#137 = CONICAL_SURFACE( '', #206, 7.00000000000000, 1.03666807390000 );
#138 = SURFACE_STYLE_USAGE( .BOTH., #207 );
#139 = FACE_OUTER_BOUND( '', #208, .T. );
#140 = FACE_BOUND( '', #209, .T. );
#141 = CONICAL_SURFACE( '', #210, 10.5852925638000, 0.931491694500000 );
#142 = SURFACE_STYLE_USAGE( .BOTH., #211 );
#143 = FACE_BOUND( '', #212, .T. );
#144 = FACE_OUTER_BOUND( '', #213, .T. );
#145 = PLANE( '', #214 );
#146 = SURFACE_STYLE_USAGE( .BOTH., #215 );
#147 = FACE_OUTER_BOUND( '', #216, .T. );
#148 = FACE_OUTER_BOUND( '', #217, .T. );
#149 = CYLINDRICAL_SURFACE( '', #218, 9.75000000000000 );
#150 = PRODUCT_CONTEXT( '', #26, 'mechanical' );
#151 = PRODUCT_DEFINITION_FORMATION_WITH_SPECIFIED_SOURCE( ' ', 'NONE', #71, .NOT_KNOWN. );
#152 = CLOSED_SHELL( '', ( #48, #52, #50, #68, #42, #40, #70, #60, #46, #54, #62, #66, #56, #64, #58, #44 ) );
#153 = CARTESIAN_POINT( '', ( 0.000000000000000, 0.000000000000000, 0.000000000000000 ) );
#154 = DIRECTION( '', ( 0.000000000000000, 0.000000000000000, 1.00000000000000 ) );
#155 = DIRECTION( '', ( 1.00000000000000, 0.000000000000000, 0.000000000000000 ) );
#156 =  ( LENGTH_UNIT(  )NAMED_UNIT( #80 )SI_UNIT( .MILLI., .METRE. ) );
#157 = SURFACE_SIDE_STYLE( '', ( #220 ) );
#158 = EDGE_LOOP( '', ( #221 ) );
#159 = EDGE_LOOP( '', ( #222 ) );
#160 = AXIS2_PLACEMENT_3D( '', #223, #224, #225 );
#161 = SURFACE_SIDE_STYLE( '', ( #226 ) );
#162 = EDGE_LOOP( '', ( #227 ) );
#163 = EDGE_LOOP( '', ( #228 ) );
#164 = AXIS2_PLACEMENT_3D( '', #229, #230, #231 );
#165 = SURFACE_SIDE_STYLE( '', ( #232 ) );
#166 = EDGE_LOOP( '', ( #233 ) );
#167 = AXIS2_PLACEMENT_3D( '', #234, #235, #236 );
#168 = SURFACE_SIDE_STYLE( '', ( #237 ) );
#169 = EDGE_LOOP( '', ( #238 ) );
#170 = EDGE_LOOP( '', ( #239 ) );
#171 = AXIS2_PLACEMENT_3D( '', #240, #241, #242 );
#172 = SURFACE_SIDE_STYLE( '', ( #243 ) );
#173 = EDGE_LOOP( '', ( #244 ) );
#174 = EDGE_LOOP( '', ( #245 ) );
#175 = AXIS2_PLACEMENT_3D( '', #246, #247, #248 );
#176 = SURFACE_SIDE_STYLE( '', ( #249 ) );
#177 = EDGE_LOOP( '', ( #250 ) );
#178 = EDGE_LOOP( '', ( #251 ) );
#179 = AXIS2_PLACEMENT_3D( '', #252, #253, #254 );
#180 = SURFACE_SIDE_STYLE( '', ( #255 ) );
#181 = EDGE_LOOP( '', ( #256 ) );
#182 = EDGE_LOOP( '', ( #257 ) );
#183 = AXIS2_PLACEMENT_3D( '', #258, #259, #260 );
#184 = SURFACE_SIDE_STYLE( '', ( #261 ) );
#185 = EDGE_LOOP( '', ( #262 ) );
#186 = EDGE_LOOP( '', ( #263 ) );
#187 = AXIS2_PLACEMENT_3D( '', #264, #265, #266 );
#188 = SURFACE_SIDE_STYLE( '', ( #267 ) );
#189 = EDGE_LOOP( '', ( #268 ) );
#190 = EDGE_LOOP( '', ( #269 ) );
#191 = AXIS2_PLACEMENT_3D( '', #270, #271, #272 );
#192 = SURFACE_SIDE_STYLE( '', ( #273 ) );
#193 = EDGE_LOOP( '', ( #274 ) );
#194 = AXIS2_PLACEMENT_3D( '', #275, #276, #277 );
#195 = SURFACE_SIDE_STYLE( '', ( #278 ) );
#196 = EDGE_LOOP( '', ( #279 ) );
#197 = EDGE_LOOP( '', ( #280 ) );
#198 = AXIS2_PLACEMENT_3D( '', #281, #282, #283 );
#199 = SURFACE_SIDE_STYLE( '', ( #284 ) );
#200 = EDGE_LOOP( '', ( #285 ) );
#201 = EDGE_LOOP( '', ( #286 ) );
#202 = AXIS2_PLACEMENT_3D( '', #287, #288, #289 );
#203 = SURFACE_SIDE_STYLE( '', ( #290 ) );
#204 = EDGE_LOOP( '', ( #291 ) );
#205 = EDGE_LOOP( '', ( #292 ) );
#206 = AXIS2_PLACEMENT_3D( '', #293, #294, #295 );
#207 = SURFACE_SIDE_STYLE( '', ( #296 ) );
#208 = EDGE_LOOP( '', ( #297 ) );
#209 = EDGE_LOOP( '', ( #298 ) );
#210 = AXIS2_PLACEMENT_3D( '', #299, #300, #301 );
#211 = SURFACE_SIDE_STYLE( '', ( #302 ) );
#212 = EDGE_LOOP( '', ( #303 ) );
#213 = EDGE_LOOP( '', ( #304 ) );
#214 = AXIS2_PLACEMENT_3D( '', #305, #306, #307 );
#215 = SURFACE_SIDE_STYLE( '', ( #308 ) );
#216 = EDGE_LOOP( '', ( #309 ) );
#217 = EDGE_LOOP( '', ( #310 ) );
#218 = AXIS2_PLACEMENT_3D( '', #311, #312, #313 );
#220 = SURFACE_STYLE_FILL_AREA( #314 );
#221 = ORIENTED_EDGE( '', *, *, #315, .F. );
#222 = ORIENTED_EDGE( '', *, *, #316, .T. );
#223 = CARTESIAN_POINT( '', ( 9.75000000000000, 5.60000000000000, 0.000000000000000 ) );
#224 = DIRECTION( '', ( 0.000000000000000, -1.00000000000000, -0.000000000000000 ) );
#225 = DIRECTION( '', ( 0.000000000000000, 0.000000000000000, -1.00000000000000 ) );
#226 = SURFACE_STYLE_FILL_AREA( #317 );
#227 = ORIENTED_EDGE( '', *, *, #318, .F. );
#228 = ORIENTED_EDGE( '', *, *, #315, .T. );
#229 = CARTESIAN_POINT( '', ( 0.000000000000000, 0.000000000000000, 0.000000000000000 ) );
#230 = DIRECTION( '', ( -0.000000000000000, 1.00000000000000, 0.000000000000000 ) );
#231 = DIRECTION( '', ( 0.000000000000000, 0.000000000000000, -1.00000000000000 ) );
#232 = SURFACE_STYLE_FILL_AREA( #319 );
#233 = ORIENTED_EDGE( '', *, *, #320, .T. );
#234 = CARTESIAN_POINT( '', ( 10.0000000000000, 0.000000000000000, 0.000000000000000 ) );
#235 = DIRECTION( '', ( 0.000000000000000, 1.00000000000000, 0.000000000000000 ) );
#236 = DIRECTION( '', ( 0.000000000000000, -0.000000000000000, 1.00000000000000 ) );
#237 = SURFACE_STYLE_FILL_AREA( #321 );
#238 = ORIENTED_EDGE( '', *, *, #322, .F. );
#239 = ORIENTED_EDGE( '', *, *, #323, .T. );
#240 = CARTESIAN_POINT( '', ( 0.000000000000000, 0.000000000000000, 0.000000000000000 ) );
#241 = DIRECTION( '', ( -0.000000000000000, 1.00000000000000, 0.000000000000000 ) );
#242 = DIRECTION( '', ( 0.000000000000000, 0.000000000000000, -1.00000000000000 ) );
#243 = SURFACE_STYLE_FILL_AREA( #324 );
#244 = ORIENTED_EDGE( '', *, *, #320, .F. );
#245 = ORIENTED_EDGE( '', *, *, #325, .T. );
#246 = CARTESIAN_POINT( '', ( 0.000000000000000, 0.000000000000000, 0.000000000000000 ) );
#247 = DIRECTION( '', ( -0.000000000000000, 1.00000000000000, 0.000000000000000 ) );
#248 = DIRECTION( '', ( 0.000000000000000, 0.000000000000000, -1.00000000000000 ) );
#249 = SURFACE_STYLE_FILL_AREA( #326 );
#250 = ORIENTED_EDGE( '', *, *, #327, .F. );
#251 = ORIENTED_EDGE( '', *, *, #328, .T. );
#252 = CARTESIAN_POINT( '', ( 0.000000000000000, 0.000000000000000, 0.000000000000000 ) );
#253 = DIRECTION( '', ( -0.000000000000000, 1.00000000000000, 0.000000000000000 ) );
#254 = DIRECTION( '', ( 0.000000000000000, 0.000000000000000, -1.00000000000000 ) );
#255 = SURFACE_STYLE_FILL_AREA( #329 );
#256 = ORIENTED_EDGE( '', *, *, #325, .F. );
#257 = ORIENTED_EDGE( '', *, *, #327, .T. );
#258 = CARTESIAN_POINT( '', ( 9.75000000000000, 2.10000000000000, 0.000000000000000 ) );
#259 = DIRECTION( '', ( 0.000000000000000, -1.00000000000000, -0.000000000000000 ) );
#260 = DIRECTION( '', ( 0.000000000000000, 0.000000000000000, -1.00000000000000 ) );
#261 = SURFACE_STYLE_FILL_AREA( #330 );
#262 = ORIENTED_EDGE( '', *, *, #323, .F. );
#263 = ORIENTED_EDGE( '', *, *, #331, .T. );
#264 = CARTESIAN_POINT( '', ( 12.5000000000000, 9.00000000000000, 0.000000000000000 ) );
#265 = DIRECTION( '', ( 0.000000000000000, 1.00000000000000, 0.000000000000000 ) );
#266 = DIRECTION( '', ( 0.000000000000000, -0.000000000000000, 1.00000000000000 ) );
#267 = SURFACE_STYLE_FILL_AREA( #332 );
#268 = ORIENTED_EDGE( '', *, *, #333, .T. );
#269 = ORIENTED_EDGE( '', *, *, #334, .F. );
#270 = CARTESIAN_POINT( '', ( 0.000000000000000, 10.6000000000000, 0.000000000000000 ) );
#271 = DIRECTION( '', ( 0.000000000000000, -1.00000000000000, -0.000000000000000 ) );
#272 = DIRECTION( '', ( 0.000000000000000, 0.000000000000000, -1.00000000000000 ) );
#273 = SURFACE_STYLE_FILL_AREA( #335 );
#274 = ORIENTED_EDGE( '', *, *, #336, .F. );
#275 = CARTESIAN_POINT( '', ( 0.000000000000000, 10.6000000000000, 0.000000000000000 ) );
#276 = DIRECTION( '', ( 0.000000000000000, -1.00000000000000, -0.000000000000000 ) );
#277 = DIRECTION( '', ( 0.000000000000000, 0.000000000000000, -1.00000000000000 ) );
#278 = SURFACE_STYLE_FILL_AREA( #337 );
#279 = ORIENTED_EDGE( '', *, *, #338, .F. );
#280 = ORIENTED_EDGE( '', *, *, #322, .T. );
#281 = CARTESIAN_POINT( '', ( 10.0000000000000, 6.40000000000000, 0.000000000000000 ) );
#282 = DIRECTION( '', ( 0.000000000000000, 1.00000000000000, 0.000000000000000 ) );
#283 = DIRECTION( '', ( 0.000000000000000, -0.000000000000000, 1.00000000000000 ) );
#284 = SURFACE_STYLE_FILL_AREA( #339 );
#285 = ORIENTED_EDGE( '', *, *, #331, .F. );
#286 = ORIENTED_EDGE( '', *, *, #340, .T. );
#287 = CARTESIAN_POINT( '', ( 0.000000000000000, 0.000000000000000, 0.000000000000000 ) );
#288 = DIRECTION( '', ( -0.000000000000000, 1.00000000000000, 0.000000000000000 ) );
#289 = DIRECTION( '', ( 0.000000000000000, 0.000000000000000, -1.00000000000000 ) );
#290 = SURFACE_STYLE_FILL_AREA( #341 );
#291 = ORIENTED_EDGE( '', *, *, #333, .F. );
#292 = ORIENTED_EDGE( '', *, *, #336, .T. );
#293 = CARTESIAN_POINT( '', ( 0.000000000000000, 10.6000000000000, 0.000000000000000 ) );
#294 = DIRECTION( '', ( -0.000000000000000, 1.00000000000000, 0.000000000000000 ) );
#295 = DIRECTION( '', ( 0.000000000000000, -0.000000000000000, 1.00000000000000 ) );
#296 = SURFACE_STYLE_FILL_AREA( #342 );
#297 = ORIENTED_EDGE( '', *, *, #340, .F. );
#298 = ORIENTED_EDGE( '', *, *, #334, .T. );
#299 = CARTESIAN_POINT( '', ( 0.000000000000000, 11.7235151680678, 0.000000000000000 ) );
#300 = DIRECTION( '', ( -0.000000000000000, -1.00000000000000, -0.000000000000000 ) );
#301 = DIRECTION( '', ( 0.000000000000000, 0.000000000000000, -1.00000000000000 ) );
#302 = SURFACE_STYLE_FILL_AREA( #343 );
#303 = ORIENTED_EDGE( '', *, *, #328, .F. );
#304 = ORIENTED_EDGE( '', *, *, #318, .T. );
#305 = CARTESIAN_POINT( '', ( 10.0000000000000, 2.90000000000000, 0.000000000000000 ) );
#306 = DIRECTION( '', ( 0.000000000000000, 1.00000000000000, 0.000000000000000 ) );
#307 = DIRECTION( '', ( 0.000000000000000, -0.000000000000000, 1.00000000000000 ) );
#308 = SURFACE_STYLE_FILL_AREA( #344 );
#309 = ORIENTED_EDGE( '', *, *, #316, .F. );
#310 = ORIENTED_EDGE( '', *, *, #338, .T. );
#311 = CARTESIAN_POINT( '', ( 0.000000000000000, 0.000000000000000, 0.000000000000000 ) );
#312 = DIRECTION( '', ( -0.000000000000000, 1.00000000000000, 0.000000000000000 ) );
#313 = DIRECTION( '', ( 0.000000000000000, 0.000000000000000, -1.00000000000000 ) );
#314 = FILL_AREA_STYLE( '', ( #345 ) );
#315 = EDGE_CURVE( '', #346, #346, #347, .T. );
#316 = EDGE_CURVE( '', #348, #348, #349, .T. );
#317 = FILL_AREA_STYLE( '', ( #350 ) );
#318 = EDGE_CURVE( '', #351, #351, #352, .T. );
#319 = FILL_AREA_STYLE( '', ( #353 ) );
#320 = EDGE_CURVE( '', #354, #354, #355, .T. );
#321 = FILL_AREA_STYLE( '', ( #356 ) );
#322 = EDGE_CURVE( '', #357, #357, #358, .T. );
#323 = EDGE_CURVE( '', #359, #359, #360, .T. );
#324 = FILL_AREA_STYLE( '', ( #361 ) );
#325 = EDGE_CURVE( '', #362, #362, #363, .T. );
#326 = FILL_AREA_STYLE( '', ( #364 ) );
#327 = EDGE_CURVE( '', #365, #365, #366, .T. );
#328 = EDGE_CURVE( '', #367, #367, #368, .T. );
#329 = FILL_AREA_STYLE( '', ( #369 ) );
#330 = FILL_AREA_STYLE( '', ( #370 ) );
#331 = EDGE_CURVE( '', #371, #371, #372, .T. );
#332 = FILL_AREA_STYLE( '', ( #373 ) );
#333 = EDGE_CURVE( '', #374, #374, #375, .T. );
#334 = EDGE_CURVE( '', #376, #376, #377, .T. );
#335 = FILL_AREA_STYLE( '', ( #378 ) );
#336 = EDGE_CURVE( '', #379, #379, #380, .T. );
#337 = FILL_AREA_STYLE( '', ( #381 ) );
#338 = EDGE_CURVE( '', #382, #382, #383, .T. );
#339 = FILL_AREA_STYLE( '', ( #384 ) );
#340 = EDGE_CURVE( '', #385, #385, #386, .T. );
#341 = FILL_AREA_STYLE( '', ( #387 ) );
#342 = FILL_AREA_STYLE( '', ( #388 ) );
#343 = FILL_AREA_STYLE( '', ( #389 ) );
#344 = FILL_AREA_STYLE( '', ( #390 ) );
#345 = FILL_AREA_STYLE_COLOUR( '', #391 );
#346 = VERTEX_POINT( '', #392 );
#347 = CIRCLE( '', #393, 10.0000000000000 );
#348 = VERTEX_POINT( '', #394 );
#349 = CIRCLE( '', #395, 9.75000000000000 );
#350 = FILL_AREA_STYLE_COLOUR( '', #396 );
#351 = VERTEX_POINT( '', #397 );
#352 = CIRCLE( '', #398, 10.0000000000000 );
#353 = FILL_AREA_STYLE_COLOUR( '', #399 );
#354 = VERTEX_POINT( '', #400 );
#355 = CIRCLE( '', #401, 10.0000000000000 );
#356 = FILL_AREA_STYLE_COLOUR( '', #402 );
#357 = VERTEX_POINT( '', #403 );
#358 = CIRCLE( '', #404, 10.0000000000000 );
#359 = VERTEX_POINT( '', #405 );
#360 = CIRCLE( '', #406, 10.0000000000000 );
#361 = FILL_AREA_STYLE_COLOUR( '', #407 );
#362 = VERTEX_POINT( '', #408 );
#363 = CIRCLE( '', #409, 10.0000000000000 );
#364 = FILL_AREA_STYLE_COLOUR( '', #410 );
#365 = VERTEX_POINT( '', #411 );
#366 = CIRCLE( '', #412, 9.75000000000000 );
#367 = VERTEX_POINT( '', #413 );
#368 = CIRCLE( '', #414, 9.75000000000000 );
#369 = FILL_AREA_STYLE_COLOUR( '', #415 );
#370 = FILL_AREA_STYLE_COLOUR( '', #416 );
#371 = VERTEX_POINT( '', #417 );
#372 = CIRCLE( '', #418, 12.5000000000000 );
#373 = FILL_AREA_STYLE_COLOUR( '', #419 );
#374 = VERTEX_POINT( '', #420 );
#375 = CIRCLE( '', #421, 9.03727272730000 );
#376 = VERTEX_POINT( '', #422 );
#377 = CIRCLE( '', #423, 10.5852925638000 );
#378 = FILL_AREA_STYLE_COLOUR( '', #424 );
#379 = VERTEX_POINT( '', #425 );
#380 = CIRCLE( '', #426, 7.00000000000000 );
#381 = FILL_AREA_STYLE_COLOUR( '', #427 );
#382 = VERTEX_POINT( '', #428 );
#383 = CIRCLE( '', #429, 9.75000000000000 );
#384 = FILL_AREA_STYLE_COLOUR( '', #430 );
#385 = VERTEX_POINT( '', #431 );
#386 = CIRCLE( '', #432, 12.5000000000000 );
#387 = FILL_AREA_STYLE_COLOUR( '', #433 );
#388 = FILL_AREA_STYLE_COLOUR( '', #434 );
#389 = FILL_AREA_STYLE_COLOUR( '', #435 );
#390 = FILL_AREA_STYLE_COLOUR( '', #436 );
#391 = COLOUR_RGB( '', 0.689999997600000, 0.689999997600000, 0.689999997600000 );
#392 = CARTESIAN_POINT( '', ( 0.000000000000000, 5.60000000000000, -10.0000000000000 ) );
#393 = AXIS2_PLACEMENT_3D( '', #437, #438, #439 );
#394 = CARTESIAN_POINT( '', ( 0.000000000000000, 5.60000000000000, -9.75000000000000 ) );
#395 = AXIS2_PLACEMENT_3D( '', #440, #441, #442 );
#396 = COLOUR_RGB( '', 0.689999997600000, 0.689999997600000, 0.689999997600000 );
#397 = CARTESIAN_POINT( '', ( 0.000000000000000, 2.90000000000000, -10.0000000000000 ) );
#398 = AXIS2_PLACEMENT_3D( '', #443, #444, #445 );
#399 = COLOUR_RGB( '', 0.689999997600000, 0.689999997600000, 0.689999997600000 );
#400 = CARTESIAN_POINT( '', ( 0.000000000000000, 0.000000000000000, -10.0000000000000 ) );
#401 = AXIS2_PLACEMENT_3D( '', #446, #447, #448 );
#402 = COLOUR_RGB( '', 0.689999997600000, 0.689999997600000, 0.689999997600000 );
#403 = CARTESIAN_POINT( '', ( 0.000000000000000, 6.40000000000000, -10.0000000000000 ) );
#404 = AXIS2_PLACEMENT_3D( '', #449, #450, #451 );
#405 = CARTESIAN_POINT( '', ( 0.000000000000000, 9.00000000000000, -10.0000000000000 ) );
#406 = AXIS2_PLACEMENT_3D( '', #452, #453, #454 );
#407 = COLOUR_RGB( '', 0.689999997600000, 0.689999997600000, 0.689999997600000 );
#408 = CARTESIAN_POINT( '', ( 0.000000000000000, 2.10000000000000, -10.0000000000000 ) );
#409 = AXIS2_PLACEMENT_3D( '', #455, #456, #457 );
#410 = COLOUR_RGB( '', 0.689999997600000, 0.689999997600000, 0.689999997600000 );
#411 = CARTESIAN_POINT( '', ( 0.000000000000000, 2.10000000000000, -9.75000000000000 ) );
#412 = AXIS2_PLACEMENT_3D( '', #458, #459, #460 );
#413 = CARTESIAN_POINT( '', ( 0.000000000000000, 2.90000000000000, -9.75000000000000 ) );
#414 = AXIS2_PLACEMENT_3D( '', #461, #462, #463 );
#415 = COLOUR_RGB( '', 0.689999997600000, 0.689999997600000, 0.689999997600000 );
#416 = COLOUR_RGB( '', 0.689999997600000, 0.689999997600000, 0.689999997600000 );
#417 = CARTESIAN_POINT( '', ( 0.000000000000000, 9.00000000000000, -12.5000000000000 ) );
#418 = AXIS2_PLACEMENT_3D( '', #464, #465, #466 );
#419 = COLOUR_RGB( '', 0.689999997600000, 0.689999997600000, 0.689999997600000 );
#420 = CARTESIAN_POINT( '', ( 0.000000000000000, 11.8049978567245, -9.03727272727273 ) );
#421 = AXIS2_PLACEMENT_3D( '', #467, #468, #469 );
#422 = CARTESIAN_POINT( '', ( 0.000000000000000, 11.7235151680678, -10.5852925637892 ) );
#423 = AXIS2_PLACEMENT_3D( '', #470, #471, #472 );
#424 = COLOUR_RGB( '', 0.689999997600000, 0.689999997600000, 0.689999997600000 );
#425 = CARTESIAN_POINT( '', ( 0.000000000000000, 10.6000000000000, -7.00000000000000 ) );
#426 = AXIS2_PLACEMENT_3D( '', #473, #474, #475 );
#427 = COLOUR_RGB( '', 0.689999997600000, 0.689999997600000, 0.689999997600000 );
#428 = CARTESIAN_POINT( '', ( 0.000000000000000, 6.40000000000000, -9.75000000000000 ) );
#429 = AXIS2_PLACEMENT_3D( '', #476, #477, #478 );
#430 = COLOUR_RGB( '', 0.689999997600000, 0.689999997600000, 0.689999997600000 );
#431 = CARTESIAN_POINT( '', ( 0.000000000000000, 10.3000000000000, -12.5000000000000 ) );
#432 = AXIS2_PLACEMENT_3D( '', #479, #480, #481 );
#433 = COLOUR_RGB( '', 0.689999997600000, 0.689999997600000, 0.689999997600000 );
#434 = COLOUR_RGB( '', 0.689999997600000, 0.689999997600000, 0.689999997600000 );
#435 = COLOUR_RGB( '', 0.689999997600000, 0.689999997600000, 0.689999997600000 );
#436 = COLOUR_RGB( '', 0.689999997600000, 0.689999997600000, 0.689999997600000 );
#437 = CARTESIAN_POINT( '', ( 0.000000000000000, 5.60000000000000, 0.000000000000000 ) );
#438 = DIRECTION( '', ( 0.000000000000000, -1.00000000000000, -0.000000000000000 ) );
#439 = DIRECTION( '', ( 0.000000000000000, 0.000000000000000, -1.00000000000000 ) );
#440 = CARTESIAN_POINT( '', ( 0.000000000000000, 5.60000000000000, 0.000000000000000 ) );
#441 = DIRECTION( '', ( 0.000000000000000, -1.00000000000000, -0.000000000000000 ) );
#442 = DIRECTION( '', ( 0.000000000000000, 0.000000000000000, -1.00000000000000 ) );
#443 = CARTESIAN_POINT( '', ( 0.000000000000000, 2.90000000000000, 0.000000000000000 ) );
#444 = DIRECTION( '', ( 0.000000000000000, -1.00000000000000, -0.000000000000000 ) );
#445 = DIRECTION( '', ( 0.000000000000000, 0.000000000000000, -1.00000000000000 ) );
#446 = CARTESIAN_POINT( '', ( 0.000000000000000, 0.000000000000000, 0.000000000000000 ) );
#447 = DIRECTION( '', ( 0.000000000000000, -1.00000000000000, -0.000000000000000 ) );
#448 = DIRECTION( '', ( 0.000000000000000, 0.000000000000000, -1.00000000000000 ) );
#449 = CARTESIAN_POINT( '', ( 0.000000000000000, 6.40000000000000, 0.000000000000000 ) );
#450 = DIRECTION( '', ( 0.000000000000000, -1.00000000000000, -0.000000000000000 ) );
#451 = DIRECTION( '', ( 0.000000000000000, 0.000000000000000, -1.00000000000000 ) );
#452 = CARTESIAN_POINT( '', ( 0.000000000000000, 9.00000000000000, 0.000000000000000 ) );
#453 = DIRECTION( '', ( 0.000000000000000, -1.00000000000000, -0.000000000000000 ) );
#454 = DIRECTION( '', ( 0.000000000000000, 0.000000000000000, -1.00000000000000 ) );
#455 = CARTESIAN_POINT( '', ( 0.000000000000000, 2.10000000000000, 0.000000000000000 ) );
#456 = DIRECTION( '', ( 0.000000000000000, -1.00000000000000, -0.000000000000000 ) );
#457 = DIRECTION( '', ( 0.000000000000000, 0.000000000000000, -1.00000000000000 ) );
#458 = CARTESIAN_POINT( '', ( 0.000000000000000, 2.10000000000000, 0.000000000000000 ) );
#459 = DIRECTION( '', ( 0.000000000000000, -1.00000000000000, -0.000000000000000 ) );
#460 = DIRECTION( '', ( 0.000000000000000, 0.000000000000000, -1.00000000000000 ) );
#461 = CARTESIAN_POINT( '', ( 0.000000000000000, 2.90000000000000, 0.000000000000000 ) );
#462 = DIRECTION( '', ( 0.000000000000000, -1.00000000000000, -0.000000000000000 ) );
#463 = DIRECTION( '', ( 0.000000000000000, 0.000000000000000, -1.00000000000000 ) );
#464 = CARTESIAN_POINT( '', ( 0.000000000000000, 9.00000000000000, 0.000000000000000 ) );
#465 = DIRECTION( '', ( 0.000000000000000, -1.00000000000000, -0.000000000000000 ) );
#466 = DIRECTION( '', ( 0.000000000000000, 0.000000000000000, -1.00000000000000 ) );
#467 = CARTESIAN_POINT( '', ( 0.000000000000000, 11.8049978567245, 0.000000000000000 ) );
#468 = DIRECTION( '', ( 0.000000000000000, -1.00000000000000, -0.000000000000000 ) );
#469 = DIRECTION( '', ( 0.000000000000000, 0.000000000000000, -1.00000000000000 ) );
#470 = CARTESIAN_POINT( '', ( 0.000000000000000, 11.7235151680678, 0.000000000000000 ) );
#471 = DIRECTION( '', ( 0.000000000000000, -1.00000000000000, -0.000000000000000 ) );
#472 = DIRECTION( '', ( 0.000000000000000, 0.000000000000000, -1.00000000000000 ) );
#473 = CARTESIAN_POINT( '', ( 0.000000000000000, 10.6000000000000, 0.000000000000000 ) );
#474 = DIRECTION( '', ( 0.000000000000000, -1.00000000000000, -0.000000000000000 ) );
#475 = DIRECTION( '', ( 0.000000000000000, 0.000000000000000, -1.00000000000000 ) );
#476 = CARTESIAN_POINT( '', ( 0.000000000000000, 6.40000000000000, 0.000000000000000 ) );
#477 = DIRECTION( '', ( 0.000000000000000, -1.00000000000000, -0.000000000000000 ) );
#478 = DIRECTION( '', ( 0.000000000000000, 0.000000000000000, -1.00000000000000 ) );
#479 = CARTESIAN_POINT( '', ( 0.000000000000000, 10.3000000000000, 0.000000000000000 ) );
#480 = DIRECTION( '', ( 0.000000000000000, -1.00000000000000, -0.000000000000000 ) );
#481 = DIRECTION( '', ( 0.000000000000000, 0.000000000000000, -1.00000000000000 ) );
ENDSEC;
END-ISO-10303-21;
