ISO-10303-21;
HEADER;
FILE_DESCRIPTION( ( 'STEP AP214' ), '1' );
FILE_NAME( '//goodhand-server/Shared Folders/GoodHand Data/Kipp CAD/K0712/K0712.1914.stp', '2020-12-09T12:34:42', ( '' ), ( '' ), ' ', 'PARTsolutions', ' ' );
FILE_SCHEMA( ( 'AUTOMOTIVE_DESIGN { 1 0 10303 214 1 1 1 1 }' ) );
ENDSEC;
DATA;
#1 = MECHANICAL_DESIGN_GEOMETRIC_PRESENTATION_REPRESENTATION( ' ', ( #10, #11, #12, #13, #14, #15, #16, #17, #18, #19, #20, #21, #22 ), #6 );
#2 = PRODUCT_DEFINITION_CONTEXT( '', #23, 'design' );
#3 = APPLICATION_PROTOCOL_DEFINITION( 'international standard', 'automotive_design', 2001, #23 );
#4 = PRODUCT_CATEGORY_RELATIONSHIP( 'NONE', 'NONE', #24, #25 );
#5 = SHAPE_DEFINITION_REPRESENTATION( #26, #27 );
#6 =  ( GEOMETRIC_REPRESENTATION_CONTEXT( 3 )GLOBAL_UNCERTAINTY_ASSIGNED_CONTEXT( ( #30 ) )GLOBAL_UNIT_ASSIGNED_CONTEXT( ( #32, #33, #34 ) )REPRESENTATION_CONTEXT( 'NONE', 'WORKSPACE' ) );
#10 = STYLED_ITEM( '', ( #36 ), #37 );
#11 = STYLED_ITEM( '', ( #38 ), #39 );
#12 = STYLED_ITEM( '', ( #40 ), #41 );
#13 = STYLED_ITEM( '', ( #42 ), #43 );
#14 = STYLED_ITEM( '', ( #44 ), #45 );
#15 = STYLED_ITEM( '', ( #46 ), #47 );
#16 = STYLED_ITEM( '', ( #48 ), #49 );
#17 = STYLED_ITEM( '', ( #50 ), #51 );
#18 = STYLED_ITEM( '', ( #52 ), #53 );
#19 = STYLED_ITEM( '', ( #54 ), #55 );
#20 = STYLED_ITEM( '', ( #56 ), #57 );
#21 = STYLED_ITEM( '', ( #58 ), #59 );
#22 = STYLED_ITEM( '', ( #60 ), #61 );
#23 = APPLICATION_CONTEXT( 'core data for automotive mechanical design processes' );
#24 = PRODUCT_CATEGORY( 'part', 'NONE' );
#25 = PRODUCT_RELATED_PRODUCT_CATEGORY( 'detail', ' ', ( #62 ) );
#26 = PRODUCT_DEFINITION_SHAPE( 'NONE', 'NONE', #63 );
#27 = ADVANCED_BREP_SHAPE_REPRESENTATION( '_K0712.1914', ( #64, #65 ), #6 );
#30 = UNCERTAINTY_MEASURE_WITH_UNIT( LENGTH_MEASURE( 0.00100000000000000 ), #32, '', '' );
#32 =  ( CONVERSION_BASED_UNIT( 'MILLIMETRE', #68 )LENGTH_UNIT(  )NAMED_UNIT( #71 ) );
#33 =  ( NAMED_UNIT( #73 )PLANE_ANGLE_UNIT(  )SI_UNIT( $, .RADIAN. ) );
#34 =  ( NAMED_UNIT( #73 )SI_UNIT( $, .STERADIAN. )SOLID_ANGLE_UNIT(  ) );
#36 = PRESENTATION_STYLE_ASSIGNMENT( ( #79 ) );
#37 = ADVANCED_FACE( '', ( #80, #81, #82 ), #83, .T. );
#38 = PRESENTATION_STYLE_ASSIGNMENT( ( #84 ) );
#39 = ADVANCED_FACE( '', ( #85, #86 ), #87, .F. );
#40 = PRESENTATION_STYLE_ASSIGNMENT( ( #88 ) );
#41 = ADVANCED_FACE( '', ( #89, #90 ), #91, .F. );
#42 = PRESENTATION_STYLE_ASSIGNMENT( ( #92 ) );
#43 = ADVANCED_FACE( '', ( #93, #94 ), #95, .F. );
#44 = PRESENTATION_STYLE_ASSIGNMENT( ( #96 ) );
#45 = ADVANCED_FACE( '', ( #97, #98 ), #99, .F. );
#46 = PRESENTATION_STYLE_ASSIGNMENT( ( #100 ) );
#47 = ADVANCED_FACE( '', ( #101, #102 ), #103, .T. );
#48 = PRESENTATION_STYLE_ASSIGNMENT( ( #104 ) );
#49 = ADVANCED_FACE( '', ( #105, #106, #107 ), #108, .F. );
#50 = PRESENTATION_STYLE_ASSIGNMENT( ( #109 ) );
#51 = ADVANCED_FACE( '', ( #110, #111 ), #112, .F. );
#52 = PRESENTATION_STYLE_ASSIGNMENT( ( #113 ) );
#53 = ADVANCED_FACE( '', ( #114, #115 ), #116, .F. );
#54 = PRESENTATION_STYLE_ASSIGNMENT( ( #117 ) );
#55 = ADVANCED_FACE( '', ( #118, #119 ), #120, .F. );
#56 = PRESENTATION_STYLE_ASSIGNMENT( ( #121 ) );
#57 = ADVANCED_FACE( '', ( #122, #123 ), #124, .F. );
#58 = PRESENTATION_STYLE_ASSIGNMENT( ( #125 ) );
#59 = ADVANCED_FACE( '', ( #126, #127 ), #128, .T. );
#60 = PRESENTATION_STYLE_ASSIGNMENT( ( #129 ) );
#61 = ADVANCED_FACE( '', ( #130, #131 ), #132, .T. );
#62 = PRODUCT( '_K0712.1914', '_K0712.1914', 'PART-_K0712.1914-DESC', ( #133 ) );
#63 = PRODUCT_DEFINITION( 'NONE', 'NONE', #134, #2 );
#64 = MANIFOLD_SOLID_BREP( '_K0712.1914', #135 );
#65 = AXIS2_PLACEMENT_3D( '', #136, #137, #138 );
#68 = LENGTH_MEASURE_WITH_UNIT( LENGTH_MEASURE( 1.00000000000000 ), #139 );
#71 = DIMENSIONAL_EXPONENTS( 1.00000000000000, 0.000000000000000, 0.000000000000000, 0.000000000000000, 0.000000000000000, 0.000000000000000, 0.000000000000000 );
#73 = DIMENSIONAL_EXPONENTS( 0.000000000000000, 0.000000000000000, 0.000000000000000, 0.000000000000000, 0.000000000000000, 0.000000000000000, 0.000000000000000 );
#79 = SURFACE_STYLE_USAGE( .BOTH., #140 );
#80 = FACE_BOUND( '', #141, .T. );
#81 = FACE_OUTER_BOUND( '', #142, .T. );
#82 = FACE_BOUND( '', #143, .T. );
#83 = SPHERICAL_SURFACE( '', #144, 16.1500000000000 );
#84 = SURFACE_STYLE_USAGE( .BOTH., #145 );
#85 = FACE_OUTER_BOUND( '', #146, .T. );
#86 = FACE_OUTER_BOUND( '', #147, .T. );
#87 = CYLINDRICAL_SURFACE( '', #148, 5.91750000000000 );
#88 = SURFACE_STYLE_USAGE( .BOTH., #149 );
#89 = FACE_OUTER_BOUND( '', #150, .T. );
#90 = FACE_OUTER_BOUND( '', #151, .T. );
#91 = TOROIDAL_SURFACE( '', #152, 12.9000000000000, 1.90000000000000 );
#92 = SURFACE_STYLE_USAGE( .BOTH., #153 );
#93 = FACE_OUTER_BOUND( '', #154, .T. );
#94 = FACE_OUTER_BOUND( '', #155, .T. );
#95 = CYLINDRICAL_SURFACE( '', #156, 9.50000000000000 );
#96 = SURFACE_STYLE_USAGE( .BOTH., #157 );
#97 = FACE_BOUND( '', #158, .T. );
#98 = FACE_OUTER_BOUND( '', #159, .T. );
#99 = PLANE( '', #160 );
#100 = SURFACE_STYLE_USAGE( .BOTH., #161 );
#101 = FACE_OUTER_BOUND( '', #162, .T. );
#102 = FACE_OUTER_BOUND( '', #163, .T. );
#103 = CYLINDRICAL_SURFACE( '', #164, 11.0000000000000 );
#104 = SURFACE_STYLE_USAGE( .BOTH., #165 );
#105 = FACE_BOUND( '', #166, .T. );
#106 = FACE_OUTER_BOUND( '', #167, .T. );
#107 = FACE_OUTER_BOUND( '', #168, .T. );
#108 = TOROIDAL_SURFACE( '', #169, 9.50000000000000, 1.26666666670000 );
#109 = SURFACE_STYLE_USAGE( .BOTH., #170 );
#110 = FACE_OUTER_BOUND( '', #171, .T. );
#111 = FACE_BOUND( '', #172, .T. );
#112 = CONICAL_SURFACE( '', #173, 5.91750000000000, 0.785398163400000 );
#113 = SURFACE_STYLE_USAGE( .BOTH., #174 );
#114 = FACE_OUTER_BOUND( '', #175, .T. );
#115 = FACE_OUTER_BOUND( '', #176, .T. );
#116 = CYLINDRICAL_SURFACE( '', #177, 9.50000000000000 );
#117 = SURFACE_STYLE_USAGE( .BOTH., #178 );
#118 = FACE_BOUND( '', #179, .T. );
#119 = FACE_OUTER_BOUND( '', #180, .T. );
#120 = SPHERICAL_SURFACE( '', #181, 9.50000000000000 );
#121 = SURFACE_STYLE_USAGE( .BOTH., #182 );
#122 = FACE_OUTER_BOUND( '', #183, .T. );
#123 = FACE_BOUND( '', #184, .T. );
#124 = CONICAL_SURFACE( '', #185, 857.167300702100, 1.02974425870000 );
#125 = SURFACE_STYLE_USAGE( .BOTH., #186 );
#126 = FACE_OUTER_BOUND( '', #187, .T. );
#127 = FACE_OUTER_BOUND( '', #188, .T. );
#128 = TOROIDAL_SURFACE( '', #189, 10.0500000000000, 0.950000000000000 );
#129 = SURFACE_STYLE_USAGE( .BOTH., #190 );
#130 = FACE_BOUND( '', #191, .T. );
#131 = FACE_OUTER_BOUND( '', #192, .T. );
#132 = PLANE( '', #193 );
#133 = PRODUCT_CONTEXT( '', #23, 'mechanical' );
#134 = PRODUCT_DEFINITION_FORMATION_WITH_SPECIFIED_SOURCE( ' ', 'NONE', #62, .NOT_KNOWN. );
#135 = CLOSED_SHELL( '', ( #57, #39, #53, #37, #41, #45, #59, #47, #61, #55, #43, #49, #51 ) );
#136 = CARTESIAN_POINT( '', ( 0.000000000000000, 0.000000000000000, 0.000000000000000 ) );
#137 = DIRECTION( '', ( 0.000000000000000, 0.000000000000000, 1.00000000000000 ) );
#138 = DIRECTION( '', ( 1.00000000000000, 0.000000000000000, 0.000000000000000 ) );
#139 =  ( LENGTH_UNIT(  )NAMED_UNIT( #71 )SI_UNIT( .MILLI., .METRE. ) );
#140 = SURFACE_SIDE_STYLE( '', ( #195 ) );
#141 = VERTEX_LOOP( '', #196 );
#142 = EDGE_LOOP( '', ( #197 ) );
#143 = EDGE_LOOP( '', ( #198 ) );
#144 = AXIS2_PLACEMENT_3D( '', #199, #200, #201 );
#145 = SURFACE_SIDE_STYLE( '', ( #202 ) );
#146 = EDGE_LOOP( '', ( #203 ) );
#147 = EDGE_LOOP( '', ( #204 ) );
#148 = AXIS2_PLACEMENT_3D( '', #205, #206, #207 );
#149 = SURFACE_SIDE_STYLE( '', ( #208 ) );
#150 = EDGE_LOOP( '', ( #209 ) );
#151 = EDGE_LOOP( '', ( #210 ) );
#152 = AXIS2_PLACEMENT_3D( '', #211, #212, #213 );
#153 = SURFACE_SIDE_STYLE( '', ( #214 ) );
#154 = EDGE_LOOP( '', ( #215 ) );
#155 = EDGE_LOOP( '', ( #216 ) );
#156 = AXIS2_PLACEMENT_3D( '', #217, #218, #219 );
#157 = SURFACE_SIDE_STYLE( '', ( #220 ) );
#158 = EDGE_LOOP( '', ( #221 ) );
#159 = EDGE_LOOP( '', ( #222 ) );
#160 = AXIS2_PLACEMENT_3D( '', #223, #224, #225 );
#161 = SURFACE_SIDE_STYLE( '', ( #226 ) );
#162 = EDGE_LOOP( '', ( #227 ) );
#163 = EDGE_LOOP( '', ( #228 ) );
#164 = AXIS2_PLACEMENT_3D( '', #229, #230, #231 );
#165 = SURFACE_SIDE_STYLE( '', ( #232 ) );
#166 = VERTEX_LOOP( '', #233 );
#167 = EDGE_LOOP( '', ( #234 ) );
#168 = EDGE_LOOP( '', ( #235 ) );
#169 = AXIS2_PLACEMENT_3D( '', #236, #237, #238 );
#170 = SURFACE_SIDE_STYLE( '', ( #239 ) );
#171 = EDGE_LOOP( '', ( #240 ) );
#172 = EDGE_LOOP( '', ( #241 ) );
#173 = AXIS2_PLACEMENT_3D( '', #242, #243, #244 );
#174 = SURFACE_SIDE_STYLE( '', ( #245 ) );
#175 = EDGE_LOOP( '', ( #246 ) );
#176 = EDGE_LOOP( '', ( #247 ) );
#177 = AXIS2_PLACEMENT_3D( '', #248, #249, #250 );
#178 = SURFACE_SIDE_STYLE( '', ( #251 ) );
#179 = VERTEX_LOOP( '', #252 );
#180 = EDGE_LOOP( '', ( #253 ) );
#181 = AXIS2_PLACEMENT_3D( '', #254, #255, #256 );
#182 = SURFACE_SIDE_STYLE( '', ( #257 ) );
#183 = EDGE_LOOP( '', ( #258 ) );
#184 = VERTEX_LOOP( '', #259 );
#185 = AXIS2_PLACEMENT_3D( '', #260, #261, #262 );
#186 = SURFACE_SIDE_STYLE( '', ( #263 ) );
#187 = EDGE_LOOP( '', ( #264 ) );
#188 = EDGE_LOOP( '', ( #265 ) );
#189 = AXIS2_PLACEMENT_3D( '', #266, #267, #268 );
#190 = SURFACE_SIDE_STYLE( '', ( #269 ) );
#191 = EDGE_LOOP( '', ( #270 ) );
#192 = EDGE_LOOP( '', ( #271 ) );
#193 = AXIS2_PLACEMENT_3D( '', #272, #273, #274 );
#195 = SURFACE_STYLE_FILL_AREA( #275 );
#196 = VERTEX_POINT( '', #276 );
#197 = ORIENTED_EDGE( '', *, *, #277, .F. );
#198 = ORIENTED_EDGE( '', *, *, #278, .T. );
#199 = CARTESIAN_POINT( '', ( 0.000000000000000, 2.60208521396521E-15, 0.000000000000000 ) );
#200 = DIRECTION( '', ( 1.00000000000000, 0.000000000000000, 0.000000000000000 ) );
#201 = DIRECTION( '', ( 0.000000000000000, 1.00000000000000, 0.000000000000000 ) );
#202 = SURFACE_STYLE_FILL_AREA( #279 );
#203 = ORIENTED_EDGE( '', *, *, #280, .T. );
#204 = ORIENTED_EDGE( '', *, *, #281, .F. );
#205 = CARTESIAN_POINT( '', ( 45.0000000000000, 0.000000000000000, 0.000000000000000 ) );
#206 = DIRECTION( '', ( -1.00000000000000, 3.28279047189465E-17, 0.000000000000000 ) );
#207 = DIRECTION( '', ( 3.28279047189465E-17, 1.00000000000000, 0.000000000000000 ) );
#208 = SURFACE_STYLE_FILL_AREA( #282 );
#209 = ORIENTED_EDGE( '', *, *, #283, .F. );
#210 = ORIENTED_EDGE( '', *, *, #277, .T. );
#211 = CARTESIAN_POINT( '', ( 12.6250742572073, 0.000000000000000, 0.000000000000000 ) );
#212 = DIRECTION( '', ( 1.00000000000000, 0.000000000000000, -0.000000000000000 ) );
#213 = DIRECTION( '', ( -0.000000000000000, 0.000000000000000, -1.00000000000000 ) );
#214 = SURFACE_STYLE_FILL_AREA( #284 );
#215 = ORIENTED_EDGE( '', *, *, #285, .T. );
#216 = ORIENTED_EDGE( '', *, *, #286, .F. );
#217 = CARTESIAN_POINT( '', ( 0.000000000000000, -19.0000000000000, 0.000000000000000 ) );
#218 = DIRECTION( '', ( -0.000000000000000, 1.00000000000000, 0.000000000000000 ) );
#219 = DIRECTION( '', ( 0.000000000000000, 0.000000000000000, -1.00000000000000 ) );
#220 = SURFACE_STYLE_FILL_AREA( #287 );
#221 = ORIENTED_EDGE( '', *, *, #288, .F. );
#222 = ORIENTED_EDGE( '', *, *, #289, .T. );
#223 = CARTESIAN_POINT( '', ( 45.0000000000000, 10.0500000000000, 0.000000000000000 ) );
#224 = DIRECTION( '', ( -1.00000000000000, 0.000000000000000, 0.000000000000000 ) );
#225 = DIRECTION( '', ( 0.000000000000000, 0.000000000000000, 1.00000000000000 ) );
#226 = SURFACE_STYLE_FILL_AREA( #290 );
#227 = ORIENTED_EDGE( '', *, *, #291, .F. );
#228 = ORIENTED_EDGE( '', *, *, #283, .T. );
#229 = CARTESIAN_POINT( '', ( 45.0000000000000, 0.000000000000000, 0.000000000000000 ) );
#230 = DIRECTION( '', ( -1.00000000000000, -0.000000000000000, 0.000000000000000 ) );
#231 = DIRECTION( '', ( -0.000000000000000, 0.000000000000000, -1.00000000000000 ) );
#232 = SURFACE_STYLE_FILL_AREA( #292 );
#233 = VERTEX_POINT( '', #293 );
#234 = ORIENTED_EDGE( '', *, *, #285, .F. );
#235 = ORIENTED_EDGE( '', *, *, #294, .T. );
#236 = CARTESIAN_POINT( '', ( 0.000000000000000, -3.80000000000000, 0.000000000000000 ) );
#237 = DIRECTION( '', ( 0.000000000000000, -1.00000000000000, -0.000000000000000 ) );
#238 = DIRECTION( '', ( 0.000000000000000, 0.000000000000000, -1.00000000000000 ) );
#239 = SURFACE_STYLE_FILL_AREA( #295 );
#240 = ORIENTED_EDGE( '', *, *, #288, .T. );
#241 = ORIENTED_EDGE( '', *, *, #280, .F. );
#242 = CARTESIAN_POINT( '', ( 43.9175000000000, 3.55362068582594E-17, 0.000000000000000 ) );
#243 = DIRECTION( '', ( 1.00000000000000, -3.28279047189465E-17, -0.000000000000000 ) );
#244 = DIRECTION( '', ( 3.28279047189465E-17, 1.00000000000000, 0.000000000000000 ) );
#245 = SURFACE_STYLE_FILL_AREA( #296 );
#246 = ORIENTED_EDGE( '', *, *, #297, .F. );
#247 = ORIENTED_EDGE( '', *, *, #294, .F. );
#248 = CARTESIAN_POINT( '', ( 0.000000000000000, -19.0000000000000, 0.000000000000000 ) );
#249 = DIRECTION( '', ( -0.000000000000000, 1.00000000000000, 0.000000000000000 ) );
#250 = DIRECTION( '', ( 0.000000000000000, 0.000000000000000, -1.00000000000000 ) );
#251 = SURFACE_STYLE_FILL_AREA( #298 );
#252 = VERTEX_POINT( '', #299 );
#253 = ORIENTED_EDGE( '', *, *, #286, .T. );
#254 = CARTESIAN_POINT( '', ( 2.60208521396521E-15, 3.46944695195361E-15, 0.000000000000000 ) );
#255 = DIRECTION( '', ( 0.000000000000000, -1.00000000000000, 0.000000000000000 ) );
#256 = DIRECTION( '', ( 1.00000000000000, 0.000000000000000, 0.000000000000000 ) );
#257 = SURFACE_STYLE_FILL_AREA( #300 );
#258 = ORIENTED_EDGE( '', *, *, #281, .T. );
#259 = VERTEX_POINT( '', #301 );
#260 = CARTESIAN_POINT( '', ( 532.982482196959, -1.60194424300768E-14, 0.000000000000000 ) );
#261 = DIRECTION( '', ( 1.00000000000000, -3.28279047189465E-17, -0.000000000000000 ) );
#262 = DIRECTION( '', ( 3.28279047189465E-17, 1.00000000000000, 0.000000000000000 ) );
#263 = SURFACE_STYLE_FILL_AREA( #302 );
#264 = ORIENTED_EDGE( '', *, *, #291, .T. );
#265 = ORIENTED_EDGE( '', *, *, #289, .F. );
#266 = CARTESIAN_POINT( '', ( 44.0500000000000, 0.000000000000000, 0.000000000000000 ) );
#267 = DIRECTION( '', ( 1.00000000000000, 0.000000000000000, -0.000000000000000 ) );
#268 = DIRECTION( '', ( -0.000000000000000, 0.000000000000000, -1.00000000000000 ) );
#269 = SURFACE_STYLE_FILL_AREA( #303 );
#270 = ORIENTED_EDGE( '', *, *, #297, .T. );
#271 = ORIENTED_EDGE( '', *, *, #278, .F. );
#272 = CARTESIAN_POINT( '', ( 19.5097107971759, -11.2597151211991, 19.0000000000000 ) );
#273 = DIRECTION( '', ( 0.0436193873653360, -0.999048221581858, 0.000000000000000 ) );
#274 = DIRECTION( '', ( 0.999048221581858, 0.0436193873653360, 0.000000000000000 ) );
#275 = FILL_AREA_STYLE( '', ( #304 ) );
#276 = CARTESIAN_POINT( '', ( -16.1500000000000, 3.59098750427670E-15, 0.000000000000000 ) );
#277 = EDGE_CURVE( '', #305, #305, #306, .T. );
#278 = EDGE_CURVE( '', #307, #307, #308, .F. );
#279 = FILL_AREA_STYLE( '', ( #309 ) );
#280 = EDGE_CURVE( '', #310, #310, #311, .T. );
#281 = EDGE_CURVE( '', #312, #312, #313, .T. );
#282 = FILL_AREA_STYLE( '', ( #314 ) );
#283 = EDGE_CURVE( '', #315, #315, #316, .T. );
#284 = FILL_AREA_STYLE( '', ( #317 ) );
#285 = EDGE_CURVE( '', #318, #318, #319, .T. );
#286 = EDGE_CURVE( '', #320, #320, #321, .T. );
#287 = FILL_AREA_STYLE( '', ( #322 ) );
#288 = EDGE_CURVE( '', #323, #323, #324, .T. );
#289 = EDGE_CURVE( '', #325, #325, #326, .T. );
#290 = FILL_AREA_STYLE( '', ( #327 ) );
#291 = EDGE_CURVE( '', #328, #328, #329, .T. );
#292 = FILL_AREA_STYLE( '', ( #330 ) );
#293 = CARTESIAN_POINT( '', ( 0.000000000000000, -3.80000000000000, -10.7666666666667 ) );
#294 = EDGE_CURVE( '', #331, #331, #332, .T. );
#295 = FILL_AREA_STYLE( '', ( #333 ) );
#296 = FILL_AREA_STYLE( '', ( #334 ) );
#297 = EDGE_CURVE( '', #335, #335, #336, .F. );
#298 = FILL_AREA_STYLE( '', ( #337 ) );
#299 = CARTESIAN_POINT( '', ( 3.18379244356020E-15, 9.50000000000000, 0.000000000000000 ) );
#300 = FILL_AREA_STYLE( '', ( #338 ) );
#301 = CARTESIAN_POINT( '', ( 17.9444072869044, 8.88178419700125E-16, 0.000000000000000 ) );
#302 = FILL_AREA_STYLE( '', ( #339 ) );
#303 = FILL_AREA_STYLE( '', ( #340 ) );
#304 = FILL_AREA_STYLE_COLOUR( '', #341 );
#305 = VERTEX_POINT( '', #342 );
#306 = CIRCLE( '', #343, 11.5421054990000 );
#307 = VERTEX_POINT( '', #344 );
#308 = CIRCLE( '', #345, 10.6963778916000 );
#309 = FILL_AREA_STYLE_COLOUR( '', #346 );
#310 = VERTEX_POINT( '', #347 );
#311 = CIRCLE( '', #348, 5.91750000000000 );
#312 = VERTEX_POINT( '', #349 );
#313 = CIRCLE( '', #350, 5.91750000000000 );
#314 = FILL_AREA_STYLE_COLOUR( '', #351 );
#315 = VERTEX_POINT( '', #352 );
#316 = CIRCLE( '', #353, 11.0000000000000 );
#317 = FILL_AREA_STYLE_COLOUR( '', #354 );
#318 = VERTEX_POINT( '', #355 );
#319 = CIRCLE( '', #356, 9.50000000000000 );
#320 = VERTEX_POINT( '', #357 );
#321 = CIRCLE( '', #358, 9.50000000000000 );
#322 = FILL_AREA_STYLE_COLOUR( '', #359 );
#323 = VERTEX_POINT( '', #360 );
#324 = CIRCLE( '', #361, 7.00000000000000 );
#325 = VERTEX_POINT( '', #362 );
#326 = CIRCLE( '', #363, 10.0500000000000 );
#327 = FILL_AREA_STYLE_COLOUR( '', #364 );
#328 = VERTEX_POINT( '', #365 );
#329 = CIRCLE( '', #366, 11.0000000000000 );
#330 = FILL_AREA_STYLE_COLOUR( '', #367 );
#331 = VERTEX_POINT( '', #368 );
#332 = CIRCLE( '', #369, 9.50000000000000 );
#333 = FILL_AREA_STYLE_COLOUR( '', #370 );
#334 = FILL_AREA_STYLE_COLOUR( '', #371 );
#335 = VERTEX_POINT( '', #372 );
#336 = ELLIPSE( '', #373, 9.50905050910000, 9.50000000000000 );
#337 = FILL_AREA_STYLE_COLOUR( '', #374 );
#338 = FILL_AREA_STYLE_COLOUR( '', #375 );
#339 = FILL_AREA_STYLE_COLOUR( '', #376 );
#340 = FILL_AREA_STYLE_COLOUR( '', #377 );
#341 = COLOUR_RGB( '', 0.689999997600000, 0.689999997600000, 0.689999997600000 );
#342 = CARTESIAN_POINT( '', ( 11.2961188312656, 0.000000000000000, -11.5421054989948 ) );
#343 = AXIS2_PLACEMENT_3D( '', #378, #379, #380 );
#344 = CARTESIAN_POINT( '', ( 11.2139918970953, -11.6219140304806, 0.000000000000000 ) );
#345 = AXIS2_PLACEMENT_3D( '', #381, #382, #383 );
#346 = COLOUR_RGB( '', 0.689999997600000, 0.689999997600000, 0.689999997600000 );
#347 = CARTESIAN_POINT( '', ( 43.9175000000000, 5.91750000000000, 0.000000000000000 ) );
#348 = AXIS2_PLACEMENT_3D( '', #384, #385, #386 );
#349 = CARTESIAN_POINT( '', ( 21.5000000000000, 5.91750000000000, 0.000000000000000 ) );
#350 = AXIS2_PLACEMENT_3D( '', #387, #388, #389 );
#351 = COLOUR_RGB( '', 0.689999997600000, 0.689999997600000, 0.689999997600000 );
#352 = CARTESIAN_POINT( '', ( 12.6250742572074, 0.000000000000000, -11.0000000000000 ) );
#353 = AXIS2_PLACEMENT_3D( '', #390, #391, #392 );
#354 = COLOUR_RGB( '', 0.689999997600000, 0.689999997600000, 0.689999997600000 );
#355 = CARTESIAN_POINT( '', ( 0.000000000000000, -2.53333333333333, -9.50000000000000 ) );
#356 = AXIS2_PLACEMENT_3D( '', #393, #394, #395 );
#357 = CARTESIAN_POINT( '', ( 0.000000000000000, 3.46944695195361E-15, -9.50000000000000 ) );
#358 = AXIS2_PLACEMENT_3D( '', #396, #397, #398 );
#359 = COLOUR_RGB( '', 0.689999997600000, 0.689999997600000, 0.689999997600000 );
#360 = CARTESIAN_POINT( '', ( 45.0000000000000, 7.00000000000000, 0.000000000000000 ) );
#361 = AXIS2_PLACEMENT_3D( '', #399, #400, #401 );
#362 = CARTESIAN_POINT( '', ( 45.0000000000000, 0.000000000000000, -10.0500000000000 ) );
#363 = AXIS2_PLACEMENT_3D( '', #402, #403, #404 );
#364 = COLOUR_RGB( '', 0.689999997600000, 0.689999997600000, 0.689999997600000 );
#365 = CARTESIAN_POINT( '', ( 44.0500000000000, 0.000000000000000, -11.0000000000000 ) );
#366 = AXIS2_PLACEMENT_3D( '', #405, #406, #407 );
#367 = COLOUR_RGB( '', 0.689999997600000, 0.689999997600000, 0.689999997600000 );
#368 = CARTESIAN_POINT( '', ( 0.000000000000000, -5.06666666666667, -9.50000000000000 ) );
#369 = AXIS2_PLACEMENT_3D( '', #408, #409, #410 );
#370 = COLOUR_RGB( '', 0.689999997600000, 0.689999997600000, 0.689999997600000 );
#371 = COLOUR_RGB( '', 0.689999997600000, 0.689999997600000, 0.689999997600000 );
#372 = CARTESIAN_POINT( '', ( -9.50000000000000, -12.5263064481070, 0.000000000000000 ) );
#373 = AXIS2_PLACEMENT_3D( '', #411, #412, #413 );
#374 = COLOUR_RGB( '', 0.689999997600000, 0.689999997600000, 0.689999997600000 );
#375 = COLOUR_RGB( '', 0.689999997600000, 0.689999997600000, 0.689999997600000 );
#376 = COLOUR_RGB( '', 0.689999997600000, 0.689999997600000, 0.689999997600000 );
#377 = COLOUR_RGB( '', 0.689999997600000, 0.689999997600000, 0.689999997600000 );
#378 = CARTESIAN_POINT( '', ( 11.2961188312656, 0.000000000000000, 0.000000000000000 ) );
#379 = DIRECTION( '', ( 1.00000000000000, 0.000000000000000, -0.000000000000000 ) );
#380 = DIRECTION( '', ( -0.000000000000000, 0.000000000000000, -1.00000000000000 ) );
#381 = CARTESIAN_POINT( '', ( 0.527794587120565, -12.0884834811405, 0.000000000000000 ) );
#382 = DIRECTION( '', ( 0.0436193873653360, -0.999048221581858, 0.000000000000000 ) );
#383 = DIRECTION( '', ( 0.999048221581858, 0.0436193873653360, 0.000000000000000 ) );
#384 = CARTESIAN_POINT( '', ( 43.9175000000000, 3.55362068582594E-17, 0.000000000000000 ) );
#385 = DIRECTION( '', ( 1.00000000000000, -3.28279047189465E-17, -0.000000000000000 ) );
#386 = DIRECTION( '', ( 3.28279047189465E-17, 1.00000000000000, 0.000000000000000 ) );
#387 = CARTESIAN_POINT( '', ( 21.5000000000000, 7.71455760895243E-16, 0.000000000000000 ) );
#388 = DIRECTION( '', ( 1.00000000000000, -3.28279047189465E-17, -0.000000000000000 ) );
#389 = DIRECTION( '', ( 3.28279047189465E-17, 1.00000000000000, 0.000000000000000 ) );
#390 = CARTESIAN_POINT( '', ( 12.6250742572074, 0.000000000000000, 0.000000000000000 ) );
#391 = DIRECTION( '', ( 1.00000000000000, 0.000000000000000, -0.000000000000000 ) );
#392 = DIRECTION( '', ( -0.000000000000000, 0.000000000000000, -1.00000000000000 ) );
#393 = CARTESIAN_POINT( '', ( 0.000000000000000, -2.53333333333333, 0.000000000000000 ) );
#394 = DIRECTION( '', ( 0.000000000000000, -1.00000000000000, -0.000000000000000 ) );
#395 = DIRECTION( '', ( 0.000000000000000, 0.000000000000000, -1.00000000000000 ) );
#396 = CARTESIAN_POINT( '', ( 0.000000000000000, 3.46944695195361E-15, 0.000000000000000 ) );
#397 = DIRECTION( '', ( 0.000000000000000, -1.00000000000000, -0.000000000000000 ) );
#398 = DIRECTION( '', ( 0.000000000000000, 0.000000000000000, -1.00000000000000 ) );
#399 = CARTESIAN_POINT( '', ( 45.0000000000000, 7.54369929765361E-33, 0.000000000000000 ) );
#400 = DIRECTION( '', ( 1.00000000000000, -3.28279047189465E-17, -0.000000000000000 ) );
#401 = DIRECTION( '', ( 3.28279047189465E-17, 1.00000000000000, 0.000000000000000 ) );
#402 = CARTESIAN_POINT( '', ( 45.0000000000000, 0.000000000000000, 0.000000000000000 ) );
#403 = DIRECTION( '', ( 1.00000000000000, 0.000000000000000, -0.000000000000000 ) );
#404 = DIRECTION( '', ( -0.000000000000000, 0.000000000000000, -1.00000000000000 ) );
#405 = CARTESIAN_POINT( '', ( 44.0500000000000, 0.000000000000000, 0.000000000000000 ) );
#406 = DIRECTION( '', ( 1.00000000000000, 0.000000000000000, -0.000000000000000 ) );
#407 = DIRECTION( '', ( -0.000000000000000, 0.000000000000000, -1.00000000000000 ) );
#408 = CARTESIAN_POINT( '', ( 0.000000000000000, -5.06666666666667, 0.000000000000000 ) );
#409 = DIRECTION( '', ( 0.000000000000000, -1.00000000000000, -0.000000000000000 ) );
#410 = DIRECTION( '', ( 0.000000000000000, 0.000000000000000, -1.00000000000000 ) );
#411 = CARTESIAN_POINT( '', ( 0.000000000000000, -12.1115274904762, 0.000000000000000 ) );
#412 = DIRECTION( '', ( 0.0436193873653360, -0.999048221581858, 0.000000000000000 ) );
#413 = DIRECTION( '', ( -0.999048221581858, -0.0436193873653360, -0.000000000000000 ) );
ENDSEC;
END-ISO-10303-21;
