ISO-10303-21;
HEADER;
FILE_DESCRIPTION( ( 'STEP AP214' ), '1' );
FILE_NAME( '//goodhand-server/Shared Folders/GoodHand Data/Kipp CAD/K1129/K1129.102415.stp', '2020-12-10T10:16:04', ( '' ), ( '' ), ' ', 'PARTsolutions', ' ' );
FILE_SCHEMA( ( 'AUTOMOTIVE_DESIGN { 1 0 10303 214 1 1 1 1 }' ) );
ENDSEC;
DATA;
#1 = MECHANICAL_DESIGN_GEOMETRIC_PRESENTATION_REPRESENTATION( ' ', ( #10, #11, #12, #13, #14, #15, #16, #17, #18, #19, #20, #21 ), #6 );
#2 = PRODUCT_DEFINITION_CONTEXT( '', #22, 'design' );
#3 = APPLICATION_PROTOCOL_DEFINITION( 'international standard', 'automotive_design', 2001, #22 );
#4 = PRODUCT_CATEGORY_RELATIONSHIP( 'NONE', 'NONE', #23, #24 );
#5 = SHAPE_DEFINITION_REPRESENTATION( #25, #26 );
#6 =  ( GEOMETRIC_REPRESENTATION_CONTEXT( 3 )GLOBAL_UNCERTAINTY_ASSIGNED_CONTEXT( ( #29 ) )GLOBAL_UNIT_ASSIGNED_CONTEXT( ( #31, #32, #33 ) )REPRESENTATION_CONTEXT( 'NONE', 'WORKSPACE' ) );
#10 = STYLED_ITEM( '', ( #35 ), #36 );
#11 = STYLED_ITEM( '', ( #37 ), #38 );
#12 = STYLED_ITEM( '', ( #39 ), #40 );
#13 = STYLED_ITEM( '', ( #41 ), #42 );
#14 = STYLED_ITEM( '', ( #43 ), #44 );
#15 = STYLED_ITEM( '', ( #45 ), #46 );
#16 = STYLED_ITEM( '', ( #47 ), #48 );
#17 = STYLED_ITEM( '', ( #49 ), #50 );
#18 = STYLED_ITEM( '', ( #51 ), #52 );
#19 = STYLED_ITEM( '', ( #53 ), #54 );
#20 = STYLED_ITEM( '', ( #55 ), #56 );
#21 = STYLED_ITEM( '', ( #57 ), #58 );
#22 = APPLICATION_CONTEXT( 'core data for automotive mechanical design processes' );
#23 = PRODUCT_CATEGORY( 'part', 'NONE' );
#24 = PRODUCT_RELATED_PRODUCT_CATEGORY( 'detail', ' ', ( #59 ) );
#25 = PRODUCT_DEFINITION_SHAPE( 'NONE', 'NONE', #60 );
#26 = ADVANCED_BREP_SHAPE_REPRESENTATION( '_K1129.102415', ( #61, #62 ), #6 );
#29 = UNCERTAINTY_MEASURE_WITH_UNIT( LENGTH_MEASURE( 0.00100000000000000 ), #31, '', '' );
#31 =  ( CONVERSION_BASED_UNIT( 'MILLIMETRE', #65 )LENGTH_UNIT(  )NAMED_UNIT( #68 ) );
#32 =  ( NAMED_UNIT( #70 )PLANE_ANGLE_UNIT(  )SI_UNIT( $, .RADIAN. ) );
#33 =  ( NAMED_UNIT( #70 )SI_UNIT( $, .STERADIAN. )SOLID_ANGLE_UNIT(  ) );
#35 = PRESENTATION_STYLE_ASSIGNMENT( ( #76 ) );
#36 = ADVANCED_FACE( '', ( #77 ), #78, .T. );
#37 = PRESENTATION_STYLE_ASSIGNMENT( ( #79 ) );
#38 = ADVANCED_FACE( '', ( #80 ), #81, .F. );
#39 = PRESENTATION_STYLE_ASSIGNMENT( ( #82 ) );
#40 = ADVANCED_FACE( '', ( #83, #84 ), #85, .T. );
#41 = PRESENTATION_STYLE_ASSIGNMENT( ( #86 ) );
#42 = ADVANCED_FACE( '', ( #87, #88 ), #89, .T. );
#43 = PRESENTATION_STYLE_ASSIGNMENT( ( #90 ) );
#44 = ADVANCED_FACE( '', ( #91 ), #92, .T. );
#45 = PRESENTATION_STYLE_ASSIGNMENT( ( #93 ) );
#46 = ADVANCED_FACE( '', ( #94 ), #95, .T. );
#47 = PRESENTATION_STYLE_ASSIGNMENT( ( #96 ) );
#48 = ADVANCED_FACE( '', ( #97 ), #98, .F. );
#49 = PRESENTATION_STYLE_ASSIGNMENT( ( #99 ) );
#50 = ADVANCED_FACE( '', ( #100 ), #101, .T. );
#51 = PRESENTATION_STYLE_ASSIGNMENT( ( #102 ) );
#52 = ADVANCED_FACE( '', ( #103, #104 ), #105, .F. );
#53 = PRESENTATION_STYLE_ASSIGNMENT( ( #106 ) );
#54 = ADVANCED_FACE( '', ( #107 ), #108, .T. );
#55 = PRESENTATION_STYLE_ASSIGNMENT( ( #109 ) );
#56 = ADVANCED_FACE( '', ( #110 ), #111, .T. );
#57 = PRESENTATION_STYLE_ASSIGNMENT( ( #112 ) );
#58 = ADVANCED_FACE( '', ( #113, #114 ), #115, .T. );
#59 = PRODUCT( '_K1129.102415', '_K1129.102415', 'PART-_K1129.102415-DESC', ( #116 ) );
#60 = PRODUCT_DEFINITION( 'NONE', 'NONE', #117, #2 );
#61 = MANIFOLD_SOLID_BREP( '_K1129.102415', #118 );
#62 = AXIS2_PLACEMENT_3D( '', #119, #120, #121 );
#65 = LENGTH_MEASURE_WITH_UNIT( LENGTH_MEASURE( 1.00000000000000 ), #122 );
#68 = DIMENSIONAL_EXPONENTS( 1.00000000000000, 0.000000000000000, 0.000000000000000, 0.000000000000000, 0.000000000000000, 0.000000000000000, 0.000000000000000 );
#70 = DIMENSIONAL_EXPONENTS( 0.000000000000000, 0.000000000000000, 0.000000000000000, 0.000000000000000, 0.000000000000000, 0.000000000000000, 0.000000000000000 );
#76 = SURFACE_STYLE_USAGE( .BOTH., #123 );
#77 = FACE_OUTER_BOUND( '', #124, .T. );
#78 = PLANE( '', #125 );
#79 = SURFACE_STYLE_USAGE( .BOTH., #126 );
#80 = FACE_OUTER_BOUND( '', #127, .T. );
#81 = PLANE( '', #128 );
#82 = SURFACE_STYLE_USAGE( .BOTH., #129 );
#83 = FACE_BOUND( '', #130, .T. );
#84 = FACE_OUTER_BOUND( '', #131, .T. );
#85 = CONICAL_SURFACE( '', #132, 12.1728522167000, 0.0314159265000000 );
#86 = SURFACE_STYLE_USAGE( .BOTH., #133 );
#87 = FACE_OUTER_BOUND( '', #134, .T. );
#88 = FACE_BOUND( '', #135, .T. );
#89 = CONICAL_SURFACE( '', #136, 11.6885575963000, 0.769690200100000 );
#90 = SURFACE_STYLE_USAGE( .BOTH., #137 );
#91 = FACE_OUTER_BOUND( '', #138, .T. );
#92 = PLANE( '', #139 );
#93 = SURFACE_STYLE_USAGE( .BOTH., #140 );
#94 = FACE_OUTER_BOUND( '', #141, .T. );
#95 = PLANE( '', #142 );
#96 = SURFACE_STYLE_USAGE( .BOTH., #143 );
#97 = FACE_OUTER_BOUND( '', #144, .T. );
#98 = PLANE( '', #145 );
#99 = SURFACE_STYLE_USAGE( .BOTH., #146 );
#100 = FACE_OUTER_BOUND( '', #147, .T. );
#101 = PLANE( '', #148 );
#102 = SURFACE_STYLE_USAGE( .BOTH., #149 );
#103 = FACE_OUTER_BOUND( '', #150, .T. );
#104 = FACE_BOUND( '', #151, .T. );
#105 = PLANE( '', #152 );
#106 = SURFACE_STYLE_USAGE( .BOTH., #153 );
#107 = FACE_OUTER_BOUND( '', #154, .T. );
#108 = PLANE( '', #155 );
#109 = SURFACE_STYLE_USAGE( .BOTH., #156 );
#110 = FACE_OUTER_BOUND( '', #157, .T. );
#111 = PLANE( '', #158 );
#112 = SURFACE_STYLE_USAGE( .BOTH., #159 );
#113 = FACE_BOUND( '', #160, .T. );
#114 = FACE_OUTER_BOUND( '', #161, .T. );
#115 = CONICAL_SURFACE( '', #162, 11.8271477833000, 0.801106126700000 );
#116 = PRODUCT_CONTEXT( '', #22, 'mechanical' );
#117 = PRODUCT_DEFINITION_FORMATION_WITH_SPECIFIED_SOURCE( ' ', 'NONE', #59, .NOT_KNOWN. );
#118 = CLOSED_SHELL( '', ( #42, #52, #44, #36, #46, #48, #58, #40, #54, #50, #56, #38 ) );
#119 = CARTESIAN_POINT( '', ( 0.000000000000000, 0.000000000000000, 0.000000000000000 ) );
#120 = DIRECTION( '', ( 0.000000000000000, 0.000000000000000, 1.00000000000000 ) );
#121 = DIRECTION( '', ( 1.00000000000000, 0.000000000000000, 0.000000000000000 ) );
#122 =  ( LENGTH_UNIT(  )NAMED_UNIT( #68 )SI_UNIT( .MILLI., .METRE. ) );
#123 = SURFACE_SIDE_STYLE( '', ( #164 ) );
#124 = EDGE_LOOP( '', ( #165, #166, #167, #168 ) );
#125 = AXIS2_PLACEMENT_3D( '', #169, #170, #171 );
#126 = SURFACE_SIDE_STYLE( '', ( #172 ) );
#127 = EDGE_LOOP( '', ( #173, #174, #175, #176, #177, #178 ) );
#128 = AXIS2_PLACEMENT_3D( '', #179, #180, #181 );
#129 = SURFACE_SIDE_STYLE( '', ( #182 ) );
#130 = EDGE_LOOP( '', ( #183 ) );
#131 = EDGE_LOOP( '', ( #184 ) );
#132 = AXIS2_PLACEMENT_3D( '', #185, #186, #187 );
#133 = SURFACE_SIDE_STYLE( '', ( #188 ) );
#134 = EDGE_LOOP( '', ( #189 ) );
#135 = EDGE_LOOP( '', ( #190 ) );
#136 = AXIS2_PLACEMENT_3D( '', #191, #192, #193 );
#137 = SURFACE_SIDE_STYLE( '', ( #194 ) );
#138 = EDGE_LOOP( '', ( #195, #196, #197, #198 ) );
#139 = AXIS2_PLACEMENT_3D( '', #199, #200, #201 );
#140 = SURFACE_SIDE_STYLE( '', ( #202 ) );
#141 = EDGE_LOOP( '', ( #203, #204, #205, #206 ) );
#142 = AXIS2_PLACEMENT_3D( '', #207, #208, #209 );
#143 = SURFACE_SIDE_STYLE( '', ( #210 ) );
#144 = EDGE_LOOP( '', ( #211 ) );
#145 = AXIS2_PLACEMENT_3D( '', #212, #213, #214 );
#146 = SURFACE_SIDE_STYLE( '', ( #215 ) );
#147 = EDGE_LOOP( '', ( #216, #217, #218, #219 ) );
#148 = AXIS2_PLACEMENT_3D( '', #220, #221, #222 );
#149 = SURFACE_SIDE_STYLE( '', ( #223 ) );
#150 = EDGE_LOOP( '', ( #224 ) );
#151 = EDGE_LOOP( '', ( #225, #226, #227, #228, #229, #230 ) );
#152 = AXIS2_PLACEMENT_3D( '', #231, #232, #233 );
#153 = SURFACE_SIDE_STYLE( '', ( #234 ) );
#154 = EDGE_LOOP( '', ( #235, #236, #237, #238 ) );
#155 = AXIS2_PLACEMENT_3D( '', #239, #240, #241 );
#156 = SURFACE_SIDE_STYLE( '', ( #242 ) );
#157 = EDGE_LOOP( '', ( #243, #244, #245, #246 ) );
#158 = AXIS2_PLACEMENT_3D( '', #247, #248, #249 );
#159 = SURFACE_SIDE_STYLE( '', ( #250 ) );
#160 = EDGE_LOOP( '', ( #251 ) );
#161 = EDGE_LOOP( '', ( #252 ) );
#162 = AXIS2_PLACEMENT_3D( '', #253, #254, #255 );
#164 = SURFACE_STYLE_FILL_AREA( #256 );
#165 = ORIENTED_EDGE( '', *, *, #257, .F. );
#166 = ORIENTED_EDGE( '', *, *, #258, .F. );
#167 = ORIENTED_EDGE( '', *, *, #259, .T. );
#168 = ORIENTED_EDGE( '', *, *, #260, .T. );
#169 = CARTESIAN_POINT( '', ( 6.00000000000000, -6.92820323027551, 0.000000000000000 ) );
#170 = DIRECTION( '', ( -0.000000000000000, 0.866025403784439, 0.500000000000000 ) );
#171 = DIRECTION( '', ( 0.000000000000000, -0.500000000000000, 0.866025403784439 ) );
#172 = SURFACE_STYLE_FILL_AREA( #261 );
#173 = ORIENTED_EDGE( '', *, *, #262, .F. );
#174 = ORIENTED_EDGE( '', *, *, #263, .F. );
#175 = ORIENTED_EDGE( '', *, *, #264, .F. );
#176 = ORIENTED_EDGE( '', *, *, #265, .F. );
#177 = ORIENTED_EDGE( '', *, *, #259, .F. );
#178 = ORIENTED_EDGE( '', *, *, #266, .F. );
#179 = CARTESIAN_POINT( '', ( 6.00000000000000, 0.000000000000000, 0.000000000000000 ) );
#180 = DIRECTION( '', ( 1.00000000000000, 0.000000000000000, 0.000000000000000 ) );
#181 = DIRECTION( '', ( 0.000000000000000, 0.000000000000000, -1.00000000000000 ) );
#182 = SURFACE_STYLE_FILL_AREA( #267 );
#183 = ORIENTED_EDGE( '', *, *, #268, .F. );
#184 = ORIENTED_EDGE( '', *, *, #269, .T. );
#185 = CARTESIAN_POINT( '', ( 0.499753280182863, 0.000000000000000, 0.000000000000000 ) );
#186 = DIRECTION( '', ( -1.00000000000000, 0.000000000000000, -0.000000000000000 ) );
#187 = DIRECTION( '', ( 0.000000000000000, 0.000000000000000, 1.00000000000000 ) );
#188 = SURFACE_STYLE_FILL_AREA( #270 );
#189 = ORIENTED_EDGE( '', *, *, #269, .F. );
#190 = ORIENTED_EDGE( '', *, *, #271, .T. );
#191 = CARTESIAN_POINT( '', ( -1.73472347597681E-15, 0.000000000000000, 0.000000000000000 ) );
#192 = DIRECTION( '', ( 1.00000000000000, -0.000000000000000, -0.000000000000000 ) );
#193 = DIRECTION( '', ( -0.000000000000000, 0.000000000000000, -1.00000000000000 ) );
#194 = SURFACE_STYLE_FILL_AREA( #272 );
#195 = ORIENTED_EDGE( '', *, *, #273, .F. );
#196 = ORIENTED_EDGE( '', *, *, #274, .F. );
#197 = ORIENTED_EDGE( '', *, *, #266, .T. );
#198 = ORIENTED_EDGE( '', *, *, #258, .T. );
#199 = CARTESIAN_POINT( '', ( 6.00000000000000, -3.46410161513775, 6.00000000000000 ) );
#200 = DIRECTION( '', ( 0.000000000000000, 0.866025403784439, -0.500000000000000 ) );
#201 = DIRECTION( '', ( 0.000000000000000, 0.500000000000000, 0.866025403784439 ) );
#202 = SURFACE_STYLE_FILL_AREA( #275 );
#203 = ORIENTED_EDGE( '', *, *, #276, .F. );
#204 = ORIENTED_EDGE( '', *, *, #277, .F. );
#205 = ORIENTED_EDGE( '', *, *, #262, .T. );
#206 = ORIENTED_EDGE( '', *, *, #274, .T. );
#207 = CARTESIAN_POINT( '', ( 6.00000000000000, 3.46410161513775, 6.00000000000000 ) );
#208 = DIRECTION( '', ( 0.000000000000000, 0.000000000000000, -1.00000000000000 ) );
#209 = DIRECTION( '', ( -1.00000000000000, 0.000000000000000, 0.000000000000000 ) );
#210 = SURFACE_STYLE_FILL_AREA( #278 );
#211 = ORIENTED_EDGE( '', *, *, #279, .T. );
#212 = CARTESIAN_POINT( '', ( 12.0000000000000, 11.3114424037399, 0.000000000000000 ) );
#213 = DIRECTION( '', ( -1.00000000000000, 0.000000000000000, 0.000000000000000 ) );
#214 = DIRECTION( '', ( 0.000000000000000, 0.000000000000000, 1.00000000000000 ) );
#215 = SURFACE_STYLE_FILL_AREA( #280 );
#216 = ORIENTED_EDGE( '', *, *, #281, .F. );
#217 = ORIENTED_EDGE( '', *, *, #282, .F. );
#218 = ORIENTED_EDGE( '', *, *, #264, .T. );
#219 = ORIENTED_EDGE( '', *, *, #283, .T. );
#220 = CARTESIAN_POINT( '', ( 6.00000000000000, 3.46410161513775, -6.00000000000000 ) );
#221 = DIRECTION( '', ( 0.000000000000000, -0.866025403784439, 0.500000000000000 ) );
#222 = DIRECTION( '', ( 0.000000000000000, -0.500000000000000, -0.866025403784439 ) );
#223 = SURFACE_STYLE_FILL_AREA( #284 );
#224 = ORIENTED_EDGE( '', *, *, #271, .F. );
#225 = ORIENTED_EDGE( '', *, *, #276, .T. );
#226 = ORIENTED_EDGE( '', *, *, #273, .T. );
#227 = ORIENTED_EDGE( '', *, *, #257, .T. );
#228 = ORIENTED_EDGE( '', *, *, #285, .T. );
#229 = ORIENTED_EDGE( '', *, *, #281, .T. );
#230 = ORIENTED_EDGE( '', *, *, #286, .T. );
#231 = CARTESIAN_POINT( '', ( -8.51743492405174E-16, 0.000000000000000, 0.000000000000000 ) );
#232 = DIRECTION( '', ( 1.00000000000000, 0.000000000000000, -0.000000000000000 ) );
#233 = DIRECTION( '', ( -0.000000000000000, 0.000000000000000, -1.00000000000000 ) );
#234 = SURFACE_STYLE_FILL_AREA( #287 );
#235 = ORIENTED_EDGE( '', *, *, #285, .F. );
#236 = ORIENTED_EDGE( '', *, *, #260, .F. );
#237 = ORIENTED_EDGE( '', *, *, #265, .T. );
#238 = ORIENTED_EDGE( '', *, *, #282, .T. );
#239 = CARTESIAN_POINT( '', ( 6.00000000000000, -3.46410161513775, -6.00000000000000 ) );
#240 = DIRECTION( '', ( 0.000000000000000, 0.000000000000000, 1.00000000000000 ) );
#241 = DIRECTION( '', ( 1.00000000000000, 0.000000000000000, -0.000000000000000 ) );
#242 = SURFACE_STYLE_FILL_AREA( #288 );
#243 = ORIENTED_EDGE( '', *, *, #286, .F. );
#244 = ORIENTED_EDGE( '', *, *, #283, .F. );
#245 = ORIENTED_EDGE( '', *, *, #263, .T. );
#246 = ORIENTED_EDGE( '', *, *, #277, .T. );
#247 = CARTESIAN_POINT( '', ( 6.00000000000000, 6.92820323027551, 0.000000000000000 ) );
#248 = DIRECTION( '', ( 0.000000000000000, -0.866025403784439, -0.500000000000000 ) );
#249 = DIRECTION( '', ( 0.000000000000000, 0.500000000000000, -0.866025403784439 ) );
#250 = SURFACE_STYLE_FILL_AREA( #289 );
#251 = ORIENTED_EDGE( '', *, *, #279, .F. );
#252 = ORIENTED_EDGE( '', *, *, #268, .T. );
#253 = CARTESIAN_POINT( '', ( 11.5002467198171, 0.000000000000000, 0.000000000000000 ) );
#254 = DIRECTION( '', ( -1.00000000000000, 0.000000000000000, -0.000000000000000 ) );
#255 = DIRECTION( '', ( 0.000000000000000, 0.000000000000000, 1.00000000000000 ) );
#256 = FILL_AREA_STYLE( '', ( #290 ) );
#257 = EDGE_CURVE( '', #291, #292, #293, .T. );
#258 = EDGE_CURVE( '', #294, #291, #295, .T. );
#259 = EDGE_CURVE( '', #294, #296, #297, .T. );
#260 = EDGE_CURVE( '', #296, #292, #298, .T. );
#261 = FILL_AREA_STYLE( '', ( #299 ) );
#262 = EDGE_CURVE( '', #300, #301, #302, .T. );
#263 = EDGE_CURVE( '', #303, #300, #304, .T. );
#264 = EDGE_CURVE( '', #305, #303, #306, .T. );
#265 = EDGE_CURVE( '', #296, #305, #307, .T. );
#266 = EDGE_CURVE( '', #301, #294, #308, .T. );
#267 = FILL_AREA_STYLE( '', ( #309 ) );
#268 = EDGE_CURVE( '', #310, #310, #311, .T. );
#269 = EDGE_CURVE( '', #312, #312, #313, .T. );
#270 = FILL_AREA_STYLE( '', ( #314 ) );
#271 = EDGE_CURVE( '', #315, #315, #316, .T. );
#272 = FILL_AREA_STYLE( '', ( #317 ) );
#273 = EDGE_CURVE( '', #318, #291, #319, .T. );
#274 = EDGE_CURVE( '', #301, #318, #320, .T. );
#275 = FILL_AREA_STYLE( '', ( #321 ) );
#276 = EDGE_CURVE( '', #322, #318, #323, .T. );
#277 = EDGE_CURVE( '', #300, #322, #324, .T. );
#278 = FILL_AREA_STYLE( '', ( #325 ) );
#279 = EDGE_CURVE( '', #326, #326, #327, .T. );
#280 = FILL_AREA_STYLE( '', ( #328 ) );
#281 = EDGE_CURVE( '', #329, #330, #331, .T. );
#282 = EDGE_CURVE( '', #305, #329, #332, .T. );
#283 = EDGE_CURVE( '', #303, #330, #333, .T. );
#284 = FILL_AREA_STYLE( '', ( #334 ) );
#285 = EDGE_CURVE( '', #292, #329, #335, .T. );
#286 = EDGE_CURVE( '', #330, #322, #336, .T. );
#287 = FILL_AREA_STYLE( '', ( #337 ) );
#288 = FILL_AREA_STYLE( '', ( #338 ) );
#289 = FILL_AREA_STYLE( '', ( #339 ) );
#290 = FILL_AREA_STYLE_COLOUR( '', #340 );
#291 = VERTEX_POINT( '', #341 );
#292 = VERTEX_POINT( '', #342 );
#293 = LINE( '', #343, #344 );
#294 = VERTEX_POINT( '', #345 );
#295 = LINE( '', #346, #347 );
#296 = VERTEX_POINT( '', #348 );
#297 = LINE( '', #349, #350 );
#298 = LINE( '', #351, #352 );
#299 = FILL_AREA_STYLE_COLOUR( '', #353 );
#300 = VERTEX_POINT( '', #354 );
#301 = VERTEX_POINT( '', #355 );
#302 = LINE( '', #356, #357 );
#303 = VERTEX_POINT( '', #358 );
#304 = LINE( '', #359, #360 );
#305 = VERTEX_POINT( '', #361 );
#306 = LINE( '', #362, #363 );
#307 = LINE( '', #364, #365 );
#308 = LINE( '', #366, #367 );
#309 = FILL_AREA_STYLE_COLOUR( '', #368 );
#310 = VERTEX_POINT( '', #369 );
#311 = CIRCLE( '', #370, 11.8271477833000 );
#312 = VERTEX_POINT( '', #371 );
#313 = CIRCLE( '', #372, 12.1728522167000 );
#314 = FILL_AREA_STYLE_COLOUR( '', #373 );
#315 = VERTEX_POINT( '', #374 );
#316 = CIRCLE( '', #375, 11.6885575963000 );
#317 = FILL_AREA_STYLE_COLOUR( '', #376 );
#318 = VERTEX_POINT( '', #377 );
#319 = LINE( '', #378, #379 );
#320 = LINE( '', #380, #381 );
#321 = FILL_AREA_STYLE_COLOUR( '', #382 );
#322 = VERTEX_POINT( '', #383 );
#323 = LINE( '', #384, #385 );
#324 = LINE( '', #386, #387 );
#325 = FILL_AREA_STYLE_COLOUR( '', #388 );
#326 = VERTEX_POINT( '', #389 );
#327 = CIRCLE( '', #390, 11.3114424037000 );
#328 = FILL_AREA_STYLE_COLOUR( '', #391 );
#329 = VERTEX_POINT( '', #392 );
#330 = VERTEX_POINT( '', #393 );
#331 = LINE( '', #394, #395 );
#332 = LINE( '', #396, #397 );
#333 = LINE( '', #398, #399 );
#334 = FILL_AREA_STYLE_COLOUR( '', #400 );
#335 = LINE( '', #401, #402 );
#336 = LINE( '', #403, #404 );
#337 = FILL_AREA_STYLE_COLOUR( '', #405 );
#338 = FILL_AREA_STYLE_COLOUR( '', #406 );
#339 = FILL_AREA_STYLE_COLOUR( '', #407 );
#340 = COLOUR_RGB( '', 0.689999997600000, 0.689999997600000, 0.689999997600000 );
#341 = CARTESIAN_POINT( '', ( 0.000000000000000, -6.92820323027551, 0.000000000000000 ) );
#342 = CARTESIAN_POINT( '', ( 0.000000000000000, -3.46410161513775, -6.00000000000000 ) );
#343 = CARTESIAN_POINT( '', ( 0.000000000000000, -6.92820323027551, 0.000000000000000 ) );
#344 = VECTOR( '', #408, 1000.00000000000 );
#345 = CARTESIAN_POINT( '', ( 6.00000000000000, -6.92820323027551, 0.000000000000000 ) );
#346 = CARTESIAN_POINT( '', ( 6.00000000000000, -6.92820323027551, 0.000000000000000 ) );
#347 = VECTOR( '', #409, 1000.00000000000 );
#348 = CARTESIAN_POINT( '', ( 6.00000000000000, -3.46410161513775, -6.00000000000000 ) );
#349 = CARTESIAN_POINT( '', ( 6.00000000000000, -6.92820323027551, 0.000000000000000 ) );
#350 = VECTOR( '', #410, 1000.00000000000 );
#351 = CARTESIAN_POINT( '', ( 6.00000000000000, -3.46410161513775, -6.00000000000000 ) );
#352 = VECTOR( '', #411, 1000.00000000000 );
#353 = COLOUR_RGB( '', 0.689999997600000, 0.689999997600000, 0.689999997600000 );
#354 = CARTESIAN_POINT( '', ( 6.00000000000000, 3.46410161513775, 6.00000000000000 ) );
#355 = CARTESIAN_POINT( '', ( 6.00000000000000, -3.46410161513775, 6.00000000000000 ) );
#356 = CARTESIAN_POINT( '', ( 6.00000000000000, 3.46410161513775, 6.00000000000000 ) );
#357 = VECTOR( '', #412, 1000.00000000000 );
#358 = CARTESIAN_POINT( '', ( 6.00000000000000, 6.92820323027551, 0.000000000000000 ) );
#359 = CARTESIAN_POINT( '', ( 6.00000000000000, 6.92820323027551, 0.000000000000000 ) );
#360 = VECTOR( '', #413, 1000.00000000000 );
#361 = CARTESIAN_POINT( '', ( 6.00000000000000, 3.46410161513775, -6.00000000000000 ) );
#362 = CARTESIAN_POINT( '', ( 6.00000000000000, 3.46410161513775, -6.00000000000000 ) );
#363 = VECTOR( '', #414, 1000.00000000000 );
#364 = CARTESIAN_POINT( '', ( 6.00000000000000, -3.46410161513775, -6.00000000000000 ) );
#365 = VECTOR( '', #415, 1000.00000000000 );
#366 = CARTESIAN_POINT( '', ( 6.00000000000000, -3.46410161513775, 6.00000000000000 ) );
#367 = VECTOR( '', #416, 1000.00000000000 );
#368 = COLOUR_RGB( '', 0.689999997600000, 0.689999997600000, 0.689999997600000 );
#369 = CARTESIAN_POINT( '', ( 11.5002467198171, 0.000000000000000, -11.8271477832790 ) );
#370 = AXIS2_PLACEMENT_3D( '', #417, #418, #419 );
#371 = CARTESIAN_POINT( '', ( 0.499753280182863, 0.000000000000000, -12.1728522167210 ) );
#372 = AXIS2_PLACEMENT_3D( '', #420, #421, #422 );
#373 = COLOUR_RGB( '', 0.689999997600000, 0.689999997600000, 0.689999997600000 );
#374 = CARTESIAN_POINT( '', ( -1.73472347597681E-15, 0.000000000000000, -11.6885575962601 ) );
#375 = AXIS2_PLACEMENT_3D( '', #423, #424, #425 );
#376 = COLOUR_RGB( '', 0.689999997600000, 0.689999997600000, 0.689999997600000 );
#377 = CARTESIAN_POINT( '', ( 0.000000000000000, -3.46410161513775, 6.00000000000000 ) );
#378 = CARTESIAN_POINT( '', ( 0.000000000000000, -3.46410161513775, 6.00000000000000 ) );
#379 = VECTOR( '', #426, 1000.00000000000 );
#380 = CARTESIAN_POINT( '', ( 6.00000000000000, -3.46410161513775, 6.00000000000000 ) );
#381 = VECTOR( '', #427, 1000.00000000000 );
#382 = COLOUR_RGB( '', 0.689999997600000, 0.689999997600000, 0.689999997600000 );
#383 = CARTESIAN_POINT( '', ( -8.51743492405174E-16, 3.46410161513776, 6.00000000000000 ) );
#384 = CARTESIAN_POINT( '', ( 0.000000000000000, 3.46410161513775, 6.00000000000000 ) );
#385 = VECTOR( '', #428, 1000.00000000000 );
#386 = CARTESIAN_POINT( '', ( 6.00000000000000, 3.46410161513775, 6.00000000000000 ) );
#387 = VECTOR( '', #429, 1000.00000000000 );
#388 = COLOUR_RGB( '', 0.689999997600000, 0.689999997600000, 0.689999997600000 );
#389 = CARTESIAN_POINT( '', ( 12.0000000000000, 0.000000000000000, -11.3114424037399 ) );
#390 = AXIS2_PLACEMENT_3D( '', #430, #431, #432 );
#391 = COLOUR_RGB( '', 0.689999997600000, 0.689999997600000, 0.689999997600000 );
#392 = CARTESIAN_POINT( '', ( 0.000000000000000, 3.46410161513775, -6.00000000000000 ) );
#393 = CARTESIAN_POINT( '', ( 0.000000000000000, 6.92820323027551, 0.000000000000000 ) );
#394 = CARTESIAN_POINT( '', ( 0.000000000000000, 3.46410161513775, -6.00000000000000 ) );
#395 = VECTOR( '', #433, 1000.00000000000 );
#396 = CARTESIAN_POINT( '', ( 6.00000000000000, 3.46410161513775, -6.00000000000000 ) );
#397 = VECTOR( '', #434, 1000.00000000000 );
#398 = CARTESIAN_POINT( '', ( 6.00000000000000, 6.92820323027551, 0.000000000000000 ) );
#399 = VECTOR( '', #435, 1000.00000000000 );
#400 = COLOUR_RGB( '', 0.689999997600000, 0.689999997600000, 0.689999997600000 );
#401 = CARTESIAN_POINT( '', ( 0.000000000000000, -3.46410161513775, -6.00000000000000 ) );
#402 = VECTOR( '', #436, 1000.00000000000 );
#403 = CARTESIAN_POINT( '', ( 0.000000000000000, 6.92820323027551, 0.000000000000000 ) );
#404 = VECTOR( '', #437, 1000.00000000000 );
#405 = COLOUR_RGB( '', 0.689999997600000, 0.689999997600000, 0.689999997600000 );
#406 = COLOUR_RGB( '', 0.689999997600000, 0.689999997600000, 0.689999997600000 );
#407 = COLOUR_RGB( '', 0.689999997600000, 0.689999997600000, 0.689999997600000 );
#408 = DIRECTION( '', ( 0.000000000000000, 0.500000000000000, -0.866025403784439 ) );
#409 = DIRECTION( '', ( -1.00000000000000, -0.000000000000000, -0.000000000000000 ) );
#410 = DIRECTION( '', ( 0.000000000000000, 0.500000000000000, -0.866025403784439 ) );
#411 = DIRECTION( '', ( -1.00000000000000, -0.000000000000000, -0.000000000000000 ) );
#412 = DIRECTION( '', ( 0.000000000000000, -1.00000000000000, 0.000000000000000 ) );
#413 = DIRECTION( '', ( 0.000000000000000, -0.500000000000000, 0.866025403784439 ) );
#414 = DIRECTION( '', ( 0.000000000000000, 0.500000000000000, 0.866025403784439 ) );
#415 = DIRECTION( '', ( 0.000000000000000, 1.00000000000000, 0.000000000000000 ) );
#416 = DIRECTION( '', ( 0.000000000000000, -0.500000000000000, -0.866025403784439 ) );
#417 = CARTESIAN_POINT( '', ( 11.5002467198171, 0.000000000000000, 0.000000000000000 ) );
#418 = DIRECTION( '', ( 1.00000000000000, 0.000000000000000, -0.000000000000000 ) );
#419 = DIRECTION( '', ( -0.000000000000000, 0.000000000000000, -1.00000000000000 ) );
#420 = CARTESIAN_POINT( '', ( 0.499753280182863, 0.000000000000000, 0.000000000000000 ) );
#421 = DIRECTION( '', ( 1.00000000000000, 0.000000000000000, -0.000000000000000 ) );
#422 = DIRECTION( '', ( -0.000000000000000, 0.000000000000000, -1.00000000000000 ) );
#423 = CARTESIAN_POINT( '', ( -1.73472347597681E-15, 0.000000000000000, 0.000000000000000 ) );
#424 = DIRECTION( '', ( 1.00000000000000, 0.000000000000000, -0.000000000000000 ) );
#425 = DIRECTION( '', ( -0.000000000000000, 0.000000000000000, -1.00000000000000 ) );
#426 = DIRECTION( '', ( 0.000000000000000, -0.500000000000000, -0.866025403784439 ) );
#427 = DIRECTION( '', ( -1.00000000000000, -0.000000000000000, -0.000000000000000 ) );
#428 = DIRECTION( '', ( 0.000000000000000, -1.00000000000000, 0.000000000000000 ) );
#429 = DIRECTION( '', ( -1.00000000000000, -0.000000000000000, -0.000000000000000 ) );
#430 = CARTESIAN_POINT( '', ( 12.0000000000000, 0.000000000000000, 0.000000000000000 ) );
#431 = DIRECTION( '', ( 1.00000000000000, 0.000000000000000, -0.000000000000000 ) );
#432 = DIRECTION( '', ( -0.000000000000000, 0.000000000000000, -1.00000000000000 ) );
#433 = DIRECTION( '', ( 0.000000000000000, 0.500000000000000, 0.866025403784439 ) );
#434 = DIRECTION( '', ( -1.00000000000000, -0.000000000000000, -0.000000000000000 ) );
#435 = DIRECTION( '', ( -1.00000000000000, -0.000000000000000, -0.000000000000000 ) );
#436 = DIRECTION( '', ( 0.000000000000000, 1.00000000000000, 0.000000000000000 ) );
#437 = DIRECTION( '', ( 0.000000000000000, -0.500000000000000, 0.866025403784439 ) );
ENDSEC;
END-ISO-10303-21;
