ISO-10303-21;
HEADER;
FILE_DESCRIPTION( ( 'STEP AP214' ), '1' );
FILE_NAME( '//goodhand-server/Shared Folders/GoodHand Data/Kipp CAD/K0396/K0396.10100.stp', '2020-12-07T10:26:29', ( '' ), ( '' ), ' ', 'PARTsolutions', ' ' );
FILE_SCHEMA( ( 'AUTOMOTIVE_DESIGN { 1 0 10303 214 1 1 1 1 }' ) );
ENDSEC;
DATA;
#1 = MECHANICAL_DESIGN_GEOMETRIC_PRESENTATION_REPRESENTATION( ' ', ( #10, #11, #12, #13, #14, #15, #16, #17 ), #6 );
#2 = PRODUCT_DEFINITION_CONTEXT( '', #18, 'design' );
#3 = APPLICATION_PROTOCOL_DEFINITION( 'international standard', 'automotive_design', 2001, #18 );
#4 = PRODUCT_CATEGORY_RELATIONSHIP( 'NONE', 'NONE', #19, #20 );
#5 = SHAPE_DEFINITION_REPRESENTATION( #21, #22 );
#6 =  ( GEOMETRIC_REPRESENTATION_CONTEXT( 3 )GLOBAL_UNCERTAINTY_ASSIGNED_CONTEXT( ( #25 ) )GLOBAL_UNIT_ASSIGNED_CONTEXT( ( #27, #28, #29 ) )REPRESENTATION_CONTEXT( 'NONE', 'WORKSPACE' ) );
#10 = STYLED_ITEM( '', ( #31 ), #32 );
#11 = STYLED_ITEM( '', ( #33 ), #34 );
#12 = STYLED_ITEM( '', ( #35 ), #36 );
#13 = STYLED_ITEM( '', ( #37 ), #38 );
#14 = STYLED_ITEM( '', ( #39 ), #40 );
#15 = STYLED_ITEM( '', ( #41 ), #42 );
#16 = STYLED_ITEM( '', ( #43 ), #44 );
#17 = STYLED_ITEM( '', ( #45 ), #46 );
#18 = APPLICATION_CONTEXT( 'core data for automotive mechanical design processes' );
#19 = PRODUCT_CATEGORY( 'part', 'NONE' );
#20 = PRODUCT_RELATED_PRODUCT_CATEGORY( 'detail', ' ', ( #47 ) );
#21 = PRODUCT_DEFINITION_SHAPE( 'NONE', 'NONE', #48 );
#22 = ADVANCED_BREP_SHAPE_REPRESENTATION( '_K0396.10100', ( #49, #50 ), #6 );
#25 = UNCERTAINTY_MEASURE_WITH_UNIT( LENGTH_MEASURE( 0.00100000000000000 ), #27, '', '' );
#27 =  ( CONVERSION_BASED_UNIT( 'MILLIMETRE', #53 )LENGTH_UNIT(  )NAMED_UNIT( #56 ) );
#28 =  ( NAMED_UNIT( #58 )PLANE_ANGLE_UNIT(  )SI_UNIT( $, .RADIAN. ) );
#29 =  ( NAMED_UNIT( #58 )SI_UNIT( $, .STERADIAN. )SOLID_ANGLE_UNIT(  ) );
#31 = PRESENTATION_STYLE_ASSIGNMENT( ( #64 ) );
#32 = ADVANCED_FACE( '', ( #65, #66 ), #67, .T. );
#33 = PRESENTATION_STYLE_ASSIGNMENT( ( #68 ) );
#34 = ADVANCED_FACE( '', ( #69, #70 ), #71, .F. );
#35 = PRESENTATION_STYLE_ASSIGNMENT( ( #72 ) );
#36 = ADVANCED_FACE( '', ( #73, #74 ), #75, .T. );
#37 = PRESENTATION_STYLE_ASSIGNMENT( ( #76 ) );
#38 = ADVANCED_FACE( '', ( #77, #78 ), #79, .T. );
#39 = PRESENTATION_STYLE_ASSIGNMENT( ( #80 ) );
#40 = ADVANCED_FACE( '', ( #81, #82 ), #83, .T. );
#41 = PRESENTATION_STYLE_ASSIGNMENT( ( #84 ) );
#42 = ADVANCED_FACE( '', ( #85, #86 ), #87, .F. );
#43 = PRESENTATION_STYLE_ASSIGNMENT( ( #88 ) );
#44 = ADVANCED_FACE( '', ( #89, #90 ), #91, .T. );
#45 = PRESENTATION_STYLE_ASSIGNMENT( ( #92 ) );
#46 = ADVANCED_FACE( '', ( #93 ), #94, .F. );
#47 = PRODUCT( '_K0396.10100', '_K0396.10100', 'PART-_K0396.10100-DESC', ( #95 ) );
#48 = PRODUCT_DEFINITION( 'NONE', 'NONE', #96, #2 );
#49 = MANIFOLD_SOLID_BREP( '_K0396.10100', #97 );
#50 = AXIS2_PLACEMENT_3D( '', #98, #99, #100 );
#53 = LENGTH_MEASURE_WITH_UNIT( LENGTH_MEASURE( 1.00000000000000 ), #101 );
#56 = DIMENSIONAL_EXPONENTS( 1.00000000000000, 0.000000000000000, 0.000000000000000, 0.000000000000000, 0.000000000000000, 0.000000000000000, 0.000000000000000 );
#58 = DIMENSIONAL_EXPONENTS( 0.000000000000000, 0.000000000000000, 0.000000000000000, 0.000000000000000, 0.000000000000000, 0.000000000000000, 0.000000000000000 );
#64 = SURFACE_STYLE_USAGE( .BOTH., #102 );
#65 = FACE_OUTER_BOUND( '', #103, .T. );
#66 = FACE_OUTER_BOUND( '', #104, .T. );
#67 = CYLINDRICAL_SURFACE( '', #105, 5.00000000000000 );
#68 = SURFACE_STYLE_USAGE( .BOTH., #106 );
#69 = FACE_OUTER_BOUND( '', #107, .T. );
#70 = FACE_OUTER_BOUND( '', #108, .T. );
#71 = CYLINDRICAL_SURFACE( '', #109, 5.00000000000000 );
#72 = SURFACE_STYLE_USAGE( .BOTH., #110 );
#73 = FACE_BOUND( '', #111, .T. );
#74 = FACE_OUTER_BOUND( '', #112, .T. );
#75 = CONICAL_SURFACE( '', #113, 5.00000000000000, 0.785398163400000 );
#76 = SURFACE_STYLE_USAGE( .BOTH., #114 );
#77 = FACE_BOUND( '', #115, .T. );
#78 = FACE_OUTER_BOUND( '', #116, .T. );
#79 = SPHERICAL_SURFACE( '', #117, 10.0000000000000 );
#80 = SURFACE_STYLE_USAGE( .BOTH., #118 );
#81 = FACE_BOUND( '', #119, .T. );
#82 = FACE_OUTER_BOUND( '', #120, .T. );
#83 = PLANE( '', #121 );
#84 = SURFACE_STYLE_USAGE( .BOTH., #122 );
#85 = FACE_OUTER_BOUND( '', #123, .T. );
#86 = FACE_OUTER_BOUND( '', #124, .T. );
#87 = TOROIDAL_SURFACE( '', #125, 9.00000000000000, 4.00000000000000 );
#88 = SURFACE_STYLE_USAGE( .BOTH., #126 );
#89 = FACE_OUTER_BOUND( '', #127, .T. );
#90 = FACE_BOUND( '', #128, .T. );
#91 = PLANE( '', #129 );
#92 = SURFACE_STYLE_USAGE( .BOTH., #130 );
#93 = FACE_OUTER_BOUND( '', #131, .T. );
#94 = PLANE( '', #132 );
#95 = PRODUCT_CONTEXT( '', #18, 'mechanical' );
#96 = PRODUCT_DEFINITION_FORMATION_WITH_SPECIFIED_SOURCE( ' ', 'NONE', #47, .NOT_KNOWN. );
#97 = CLOSED_SHELL( '', ( #44, #46, #36, #32, #42, #38, #40, #34 ) );
#98 = CARTESIAN_POINT( '', ( 0.000000000000000, 0.000000000000000, 0.000000000000000 ) );
#99 = DIRECTION( '', ( 0.000000000000000, 0.000000000000000, 1.00000000000000 ) );
#100 = DIRECTION( '', ( 1.00000000000000, 0.000000000000000, 0.000000000000000 ) );
#101 =  ( LENGTH_UNIT(  )NAMED_UNIT( #56 )SI_UNIT( .MILLI., .METRE. ) );
#102 = SURFACE_SIDE_STYLE( '', ( #134 ) );
#103 = EDGE_LOOP( '', ( #135 ) );
#104 = EDGE_LOOP( '', ( #136 ) );
#105 = AXIS2_PLACEMENT_3D( '', #137, #138, #139 );
#106 = SURFACE_SIDE_STYLE( '', ( #140 ) );
#107 = EDGE_LOOP( '', ( #141 ) );
#108 = EDGE_LOOP( '', ( #142 ) );
#109 = AXIS2_PLACEMENT_3D( '', #143, #144, #145 );
#110 = SURFACE_SIDE_STYLE( '', ( #146 ) );
#111 = EDGE_LOOP( '', ( #147 ) );
#112 = EDGE_LOOP( '', ( #148 ) );
#113 = AXIS2_PLACEMENT_3D( '', #149, #150, #151 );
#114 = SURFACE_SIDE_STYLE( '', ( #152 ) );
#115 = VERTEX_LOOP( '', #153 );
#116 = EDGE_LOOP( '', ( #154, #155, #156, #157 ) );
#117 = AXIS2_PLACEMENT_3D( '', #158, #159, #160 );
#118 = SURFACE_SIDE_STYLE( '', ( #161 ) );
#119 = EDGE_LOOP( '', ( #162 ) );
#120 = EDGE_LOOP( '', ( #163, #164 ) );
#121 = AXIS2_PLACEMENT_3D( '', #165, #166, #167 );
#122 = SURFACE_SIDE_STYLE( '', ( #168 ) );
#123 = EDGE_LOOP( '', ( #169 ) );
#124 = EDGE_LOOP( '', ( #170, #171, #172, #173 ) );
#125 = AXIS2_PLACEMENT_3D( '', #174, #175, #176 );
#126 = SURFACE_SIDE_STYLE( '', ( #177 ) );
#127 = EDGE_LOOP( '', ( #178, #179 ) );
#128 = EDGE_LOOP( '', ( #180 ) );
#129 = AXIS2_PLACEMENT_3D( '', #181, #182, #183 );
#130 = SURFACE_SIDE_STYLE( '', ( #184 ) );
#131 = EDGE_LOOP( '', ( #185 ) );
#132 = AXIS2_PLACEMENT_3D( '', #186, #187, #188 );
#134 = SURFACE_STYLE_FILL_AREA( #189 );
#135 = ORIENTED_EDGE( '', *, *, #190, .F. );
#136 = ORIENTED_EDGE( '', *, *, #191, .T. );
#137 = CARTESIAN_POINT( '', ( 50.0000000000000, 5.56657635976070E-16, 0.000000000000000 ) );
#138 = DIRECTION( '', ( -1.00000000000000, 1.11331527195214E-17, 0.000000000000000 ) );
#139 = DIRECTION( '', ( 1.11331527195214E-17, 1.00000000000000, 0.000000000000000 ) );
#140 = SURFACE_STYLE_FILL_AREA( #192 );
#141 = ORIENTED_EDGE( '', *, *, #193, .T. );
#142 = ORIENTED_EDGE( '', *, *, #194, .T. );
#143 = CARTESIAN_POINT( '', ( 0.000000000000000, 0.000000000000000, 6.00100000000000 ) );
#144 = DIRECTION( '', ( -0.000000000000000, -0.000000000000000, 1.00000000000000 ) );
#145 = DIRECTION( '', ( -1.00000000000000, 0.000000000000000, 0.000000000000000 ) );
#146 = SURFACE_STYLE_FILL_AREA( #195 );
#147 = ORIENTED_EDGE( '', *, *, #196, .F. );
#148 = ORIENTED_EDGE( '', *, *, #190, .T. );
#149 = CARTESIAN_POINT( '', ( 99.0800000000000, 1.02425005019597E-17, 0.000000000000000 ) );
#150 = DIRECTION( '', ( -1.00000000000000, 1.11331527195214E-17, -0.000000000000000 ) );
#151 = DIRECTION( '', ( -1.11331527195214E-17, -1.00000000000000, 0.000000000000000 ) );
#152 = SURFACE_STYLE_FILL_AREA( #197 );
#153 = VERTEX_POINT( '', #198 );
#154 = ORIENTED_EDGE( '', *, *, #199, .F. );
#155 = ORIENTED_EDGE( '', *, *, #200, .T. );
#156 = ORIENTED_EDGE( '', *, *, #201, .F. );
#157 = ORIENTED_EDGE( '', *, *, #202, .T. );
#158 = CARTESIAN_POINT( '', ( 0.000000000000000, -8.67361737988404E-16, 0.000000000000000 ) );
#159 = DIRECTION( '', ( 1.00000000000000, 0.000000000000000, 0.000000000000000 ) );
#160 = DIRECTION( '', ( 0.000000000000000, 1.00000000000000, 0.000000000000000 ) );
#161 = SURFACE_STYLE_FILL_AREA( #203 );
#162 = ORIENTED_EDGE( '', *, *, #193, .F. );
#163 = ORIENTED_EDGE( '', *, *, #200, .F. );
#164 = ORIENTED_EDGE( '', *, *, #204, .T. );
#165 = CARTESIAN_POINT( '', ( 0.000000000000000, 10.0000000000000, 6.00000000000000 ) );
#166 = DIRECTION( '', ( 0.000000000000000, 0.000000000000000, 1.00000000000000 ) );
#167 = DIRECTION( '', ( 1.00000000000000, 0.000000000000000, -0.000000000000000 ) );
#168 = SURFACE_STYLE_FILL_AREA( #205 );
#169 = ORIENTED_EDGE( '', *, *, #191, .F. );
#170 = ORIENTED_EDGE( '', *, *, #204, .F. );
#171 = ORIENTED_EDGE( '', *, *, #199, .T. );
#172 = ORIENTED_EDGE( '', *, *, #206, .F. );
#173 = ORIENTED_EDGE( '', *, *, #201, .T. );
#174 = CARTESIAN_POINT( '', ( 10.7238052947636, 0.000000000000000, 0.000000000000000 ) );
#175 = DIRECTION( '', ( 1.00000000000000, -1.11331527195214E-17, -0.000000000000000 ) );
#176 = DIRECTION( '', ( 1.11331527195214E-17, 1.00000000000000, 0.000000000000000 ) );
#177 = SURFACE_STYLE_FILL_AREA( #207 );
#178 = ORIENTED_EDGE( '', *, *, #202, .F. );
#179 = ORIENTED_EDGE( '', *, *, #206, .T. );
#180 = ORIENTED_EDGE( '', *, *, #194, .F. );
#181 = CARTESIAN_POINT( '', ( 0.000000000000000, 0.000000000000000, -6.00000000000000 ) );
#182 = DIRECTION( '', ( -0.000000000000000, 0.000000000000000, -1.00000000000000 ) );
#183 = DIRECTION( '', ( -1.00000000000000, 0.000000000000000, 0.000000000000000 ) );
#184 = SURFACE_STYLE_FILL_AREA( #208 );
#185 = ORIENTED_EDGE( '', *, *, #196, .T. );
#186 = CARTESIAN_POINT( '', ( 100.000000000000, 4.08000000000001, 0.000000000000000 ) );
#187 = DIRECTION( '', ( -1.00000000000000, 1.11331527195214E-17, 0.000000000000000 ) );
#188 = DIRECTION( '', ( -1.11331527195214E-17, -1.00000000000000, 0.000000000000000 ) );
#189 = FILL_AREA_STYLE( '', ( #209 ) );
#190 = EDGE_CURVE( '', #210, #210, #211, .T. );
#191 = EDGE_CURVE( '', #212, #212, #213, .T. );
#192 = FILL_AREA_STYLE( '', ( #214 ) );
#193 = EDGE_CURVE( '', #215, #215, #216, .T. );
#194 = EDGE_CURVE( '', #217, #217, #218, .T. );
#195 = FILL_AREA_STYLE( '', ( #219 ) );
#196 = EDGE_CURVE( '', #220, #220, #221, .T. );
#197 = FILL_AREA_STYLE( '', ( #222 ) );
#198 = CARTESIAN_POINT( '', ( -10.0000000000000, -1.43706811219513E-16, 0.000000000000000 ) );
#199 = EDGE_CURVE( '', #223, #224, #225, .T. );
#200 = EDGE_CURVE( '', #223, #226, #227, .F. );
#201 = EDGE_CURVE( '', #228, #226, #229, .T. );
#202 = EDGE_CURVE( '', #228, #224, #230, .F. );
#203 = FILL_AREA_STYLE( '', ( #231 ) );
#204 = EDGE_CURVE( '', #223, #226, #232, .T. );
#205 = FILL_AREA_STYLE( '', ( #233 ) );
#206 = EDGE_CURVE( '', #228, #224, #234, .T. );
#207 = FILL_AREA_STYLE( '', ( #235 ) );
#208 = FILL_AREA_STYLE( '', ( #236 ) );
#209 = FILL_AREA_STYLE_COLOUR( '', #237 );
#210 = VERTEX_POINT( '', #238 );
#211 = CIRCLE( '', #239, 5.00000000000000 );
#212 = VERTEX_POINT( '', #240 );
#213 = CIRCLE( '', #241, 5.00000000000000 );
#214 = FILL_AREA_STYLE_COLOUR( '', #242 );
#215 = VERTEX_POINT( '', #243 );
#216 = CIRCLE( '', #244, 5.00000000000000 );
#217 = VERTEX_POINT( '', #245 );
#218 = CIRCLE( '', #246, 5.00000000000000 );
#219 = FILL_AREA_STYLE_COLOUR( '', #247 );
#220 = VERTEX_POINT( '', #248 );
#221 = CIRCLE( '', #249, 4.08000000000000 );
#222 = FILL_AREA_STYLE_COLOUR( '', #250 );
#223 = VERTEX_POINT( '', #251 );
#224 = VERTEX_POINT( '', #252 );
#225 = CIRCLE( '', #253, 6.42857142860000 );
#226 = VERTEX_POINT( '', #254 );
#227 = CIRCLE( '', #255, 8.00000000000000 );
#228 = VERTEX_POINT( '', #256 );
#229 = CIRCLE( '', #257, 6.42857142860000 );
#230 = CIRCLE( '', #258, 8.00000000000000 );
#231 = FILL_AREA_STYLE_COLOUR( '', #259 );
#232 = B_SPLINE_CURVE_WITH_KNOTS( '', 3, ( #260, #261, #262, #263, #264, #265, #266, #267, #268, #269, #270, #271, #272, #273 ), .UNSPECIFIED., .F., .F., ( 4, 2, 2, 2, 2, 2, 4 ), ( 0.0519821601073683, 0.0531402265685448, 0.0537192597991331, 0.0540087764144273, 0.0542982930297214, 0.0554563594908979, 0.0566144259520745 ), .UNSPECIFIED. );
#233 = FILL_AREA_STYLE_COLOUR( '', #274 );
#234 = B_SPLINE_CURVE_WITH_KNOTS( '', 3, ( #275, #276, #277, #278, #279, #280, #281, #282, #283, #284, #285, #286, #287, #288 ), .UNSPECIFIED., .F., .F., ( 4, 2, 2, 2, 2, 2, 4 ), ( 0.0519821601073683, 0.0531402265685449, 0.0537192597991331, 0.0540087764144273, 0.0542982930297214, 0.0554563594908980, 0.0566144259520745 ), .UNSPECIFIED. );
#235 = FILL_AREA_STYLE_COLOUR( '', #289 );
#236 = FILL_AREA_STYLE_COLOUR( '', #290 );
#237 = COLOUR_RGB( '', 0.689999997600000, 0.689999997600000, 0.689999997600000 );
#238 = CARTESIAN_POINT( '', ( 99.0800000000000, 5.00000000000001, 0.000000000000000 ) );
#239 = AXIS2_PLACEMENT_3D( '', #291, #292, #293 );
#240 = CARTESIAN_POINT( '', ( 10.7238052947636, 5.00000000000000, 0.000000000000000 ) );
#241 = AXIS2_PLACEMENT_3D( '', #294, #295, #296 );
#242 = COLOUR_RGB( '', 0.689999997600000, 0.689999997600000, 0.689999997600000 );
#243 = CARTESIAN_POINT( '', ( 5.00000000000000, 0.000000000000000, 6.00000000000000 ) );
#244 = AXIS2_PLACEMENT_3D( '', #297, #298, #299 );
#245 = CARTESIAN_POINT( '', ( 0.000000000000000, 5.00000000000000, -6.00000000000000 ) );
#246 = AXIS2_PLACEMENT_3D( '', #300, #301, #302 );
#247 = COLOUR_RGB( '', 0.689999997600000, 0.689999997600000, 0.689999997600000 );
#248 = CARTESIAN_POINT( '', ( 100.000000000000, 4.08000000000001, 0.000000000000000 ) );
#249 = AXIS2_PLACEMENT_3D( '', #303, #304, #305 );
#250 = COLOUR_RGB( '', 0.689999997600000, 0.689999997600000, 0.689999997600000 );
#251 = CARTESIAN_POINT( '', ( 7.65986092483115, -2.30792777448621, 6.00000000000000 ) );
#252 = CARTESIAN_POINT( '', ( 7.65986092483117, -2.30792777448624, -6.00000000000000 ) );
#253 = AXIS2_PLACEMENT_3D( '', #306, #307, #308 );
#254 = CARTESIAN_POINT( '', ( 7.65986092483117, 2.30792777448624, 6.00000000000000 ) );
#255 = AXIS2_PLACEMENT_3D( '', #309, #310, #311 );
#256 = CARTESIAN_POINT( '', ( 7.65986092483115, 2.30792777448621, -6.00000000000000 ) );
#257 = AXIS2_PLACEMENT_3D( '', #312, #313, #314 );
#258 = AXIS2_PLACEMENT_3D( '', #315, #316, #317 );
#259 = COLOUR_RGB( '', 0.689999997600000, 0.689999997600000, 0.689999997600000 );
#260 = CARTESIAN_POINT( '', ( 7.65986092483115, -2.30792777448621, 6.00000000000000 ) );
#261 = CARTESIAN_POINT( '', ( 7.77415965433548, -1.92857778720901, 6.00000000000000 ) );
#262 = CARTESIAN_POINT( '', ( 7.88043141245575, -1.54735229838022, 6.00000000000000 ) );
#263 = CARTESIAN_POINT( '', ( 7.99575575103653, -0.965214004134312, 6.00000000000000 ) );
#264 = CARTESIAN_POINT( '', ( 8.02673708496312, -0.769424851111408, 6.00000000000000 ) );
#265 = CARTESIAN_POINT( '', ( 8.05803244953141, -0.472195101090952, 6.00000000000000 ) );
#266 = CARTESIAN_POINT( '', ( 8.06594104515585, -0.372528973906147, 6.00000000000000 ) );
#267 = CARTESIAN_POINT( '', ( 8.07620328285652, -0.171898804856134, 6.00000000000000 ) );
#268 = CARTESIAN_POINT( '', ( 8.07851716252961, -0.0681456565805345, 6.00000000000000 ) );
#269 = CARTESIAN_POINT( '', ( 8.07578850795711, 0.420372905846894, 6.00000000000000 ) );
#270 = CARTESIAN_POINT( '', ( 8.02888840736220, 0.803858654225821, 6.00000000000000 ) );
#271 = CARTESIAN_POINT( '', ( 7.87644289521946, 1.56121824187826, 6.00000000000000 ) );
#272 = CARTESIAN_POINT( '', ( 7.77208630363487, 1.93545910220963, 6.00000000000000 ) );
#273 = CARTESIAN_POINT( '', ( 7.65986092483112, 2.30792777448623, 6.00000000000000 ) );
#274 = COLOUR_RGB( '', 0.689999997600000, 0.689999997600000, 0.689999997600000 );
#275 = CARTESIAN_POINT( '', ( 7.65986092483115, 2.30792777448621, -6.00000000000000 ) );
#276 = CARTESIAN_POINT( '', ( 7.77415965433548, 1.92857778720901, -6.00000000000000 ) );
#277 = CARTESIAN_POINT( '', ( 7.88043141245575, 1.54735229838023, -6.00000000000000 ) );
#278 = CARTESIAN_POINT( '', ( 7.99575575103653, 0.965214004134321, -6.00000000000000 ) );
#279 = CARTESIAN_POINT( '', ( 8.02673708496312, 0.769424851111410, -6.00000000000000 ) );
#280 = CARTESIAN_POINT( '', ( 8.05803244953141, 0.472195101090953, -6.00000000000000 ) );
#281 = CARTESIAN_POINT( '', ( 8.06594104515585, 0.372528973906149, -6.00000000000000 ) );
#282 = CARTESIAN_POINT( '', ( 8.07620328285652, 0.171898804856136, -6.00000000000000 ) );
#283 = CARTESIAN_POINT( '', ( 8.07851716252961, 0.0681456565805366, -6.00000000000000 ) );
#284 = CARTESIAN_POINT( '', ( 8.07578850795711, -0.420372905846892, -6.00000000000000 ) );
#285 = CARTESIAN_POINT( '', ( 8.02888840736220, -0.803858654225826, -6.00000000000000 ) );
#286 = CARTESIAN_POINT( '', ( 7.87644289521946, -1.56121824187827, -6.00000000000000 ) );
#287 = CARTESIAN_POINT( '', ( 7.77208630363486, -1.93545910220963, -6.00000000000000 ) );
#288 = CARTESIAN_POINT( '', ( 7.65986092483112, -2.30792777448623, -6.00000000000000 ) );
#289 = COLOUR_RGB( '', 0.689999997600000, 0.689999997600000, 0.689999997600000 );
#290 = COLOUR_RGB( '', 0.689999997600000, 0.689999997600000, 0.689999997600000 );
#291 = CARTESIAN_POINT( '', ( 99.0800000000000, 1.02425005019597E-17, 0.000000000000000 ) );
#292 = DIRECTION( '', ( 1.00000000000000, -1.11331527195214E-17, -0.000000000000000 ) );
#293 = DIRECTION( '', ( 1.11331527195214E-17, 1.00000000000000, 0.000000000000000 ) );
#294 = CARTESIAN_POINT( '', ( 10.7238052947636, 9.93925509871124E-16, 0.000000000000000 ) );
#295 = DIRECTION( '', ( 1.00000000000000, -1.11331527195214E-17, -0.000000000000000 ) );
#296 = DIRECTION( '', ( 1.11331527195214E-17, 1.00000000000000, 0.000000000000000 ) );
#297 = CARTESIAN_POINT( '', ( 0.000000000000000, 0.000000000000000, 6.00000000000000 ) );
#298 = DIRECTION( '', ( 0.000000000000000, 0.000000000000000, 1.00000000000000 ) );
#299 = DIRECTION( '', ( 1.00000000000000, 0.000000000000000, -0.000000000000000 ) );
#300 = CARTESIAN_POINT( '', ( 0.000000000000000, 0.000000000000000, -6.00000000000000 ) );
#301 = DIRECTION( '', ( 0.000000000000000, 0.000000000000000, -1.00000000000000 ) );
#302 = DIRECTION( '', ( 0.000000000000000, 1.00000000000000, 0.000000000000000 ) );
#303 = CARTESIAN_POINT( '', ( 100.000000000000, -9.62964972193618E-32, 0.000000000000000 ) );
#304 = DIRECTION( '', ( 1.00000000000000, -1.11331527195214E-17, -0.000000000000000 ) );
#305 = DIRECTION( '', ( 1.11331527195214E-17, 1.00000000000000, 0.000000000000000 ) );
#306 = CARTESIAN_POINT( '', ( 7.65986092483115, 1.02803687046570E-15, 0.000000000000000 ) );
#307 = DIRECTION( '', ( 1.00000000000000, -1.11331527195214E-17, -0.000000000000000 ) );
#308 = DIRECTION( '', ( 1.11331527195214E-17, 1.00000000000000, 0.000000000000000 ) );
#309 = CARTESIAN_POINT( '', ( 0.000000000000000, -8.67361737988404E-16, 6.00000000000000 ) );
#310 = DIRECTION( '', ( 0.000000000000000, 0.000000000000000, 1.00000000000000 ) );
#311 = DIRECTION( '', ( 1.00000000000000, 0.000000000000000, -0.000000000000000 ) );
#312 = CARTESIAN_POINT( '', ( 7.65986092483115, 1.02803687046570E-15, 0.000000000000000 ) );
#313 = DIRECTION( '', ( 1.00000000000000, -1.11331527195214E-17, -0.000000000000000 ) );
#314 = DIRECTION( '', ( 1.11331527195214E-17, 1.00000000000000, 0.000000000000000 ) );
#315 = CARTESIAN_POINT( '', ( 0.000000000000000, -8.67361737988404E-16, -6.00000000000000 ) );
#316 = DIRECTION( '', ( -0.000000000000000, 0.000000000000000, -1.00000000000000 ) );
#317 = DIRECTION( '', ( -1.00000000000000, 0.000000000000000, 0.000000000000000 ) );
ENDSEC;
END-ISO-10303-21;
