ISO-10303-21;
HEADER;
FILE_DESCRIPTION( ( 'STEP AP214' ), '1' );
FILE_NAME( '//goodhand-server/Shared Folders/GoodHand Data/Kipp CAD/K0282/K0282.112C_0_.stp', '2020-11-27T12:43:10', ( '' ), ( '' ), ' ', 'PARTsolutions', ' ' );
FILE_SCHEMA( ( 'AUTOMOTIVE_DESIGN { 1 0 10303 214 1 1 1 1 }' ) );
ENDSEC;
DATA;
#1 = MECHANICAL_DESIGN_GEOMETRIC_PRESENTATION_REPRESENTATION( ' ', ( #10, #11, #12, #13, #14, #15, #16, #17, #18, #19, #20, #21, #22, #23, #24 ), #6 );
#2 = PRODUCT_DEFINITION_CONTEXT( '', #25, 'design' );
#3 = APPLICATION_PROTOCOL_DEFINITION( 'international standard', 'automotive_design', 2001, #25 );
#4 = PRODUCT_CATEGORY_RELATIONSHIP( 'NONE', 'NONE', #26, #27 );
#5 = SHAPE_DEFINITION_REPRESENTATION( #28, #29 );
#6 =  ( GEOMETRIC_REPRESENTATION_CONTEXT( 3 )GLOBAL_UNCERTAINTY_ASSIGNED_CONTEXT( ( #32 ) )GLOBAL_UNIT_ASSIGNED_CONTEXT( ( #34, #35, #36 ) )REPRESENTATION_CONTEXT( 'NONE', 'WORKSPACE' ) );
#10 = STYLED_ITEM( '', ( #38 ), #39 );
#11 = STYLED_ITEM( '', ( #40 ), #41 );
#12 = STYLED_ITEM( '', ( #42 ), #43 );
#13 = STYLED_ITEM( '', ( #44 ), #45 );
#14 = STYLED_ITEM( '', ( #46 ), #47 );
#15 = STYLED_ITEM( '', ( #48 ), #49 );
#16 = STYLED_ITEM( '', ( #50 ), #51 );
#17 = STYLED_ITEM( '', ( #52 ), #53 );
#18 = STYLED_ITEM( '', ( #54 ), #55 );
#19 = STYLED_ITEM( '', ( #56 ), #57 );
#20 = STYLED_ITEM( '', ( #58 ), #59 );
#21 = STYLED_ITEM( '', ( #60 ), #61 );
#22 = STYLED_ITEM( '', ( #62 ), #63 );
#23 = STYLED_ITEM( '', ( #64 ), #65 );
#24 = STYLED_ITEM( '', ( #66 ), #67 );
#25 = APPLICATION_CONTEXT( 'core data for automotive mechanical design processes' );
#26 = PRODUCT_CATEGORY( 'part', 'NONE' );
#27 = PRODUCT_RELATED_PRODUCT_CATEGORY( 'detail', ' ', ( #68 ) );
#28 = PRODUCT_DEFINITION_SHAPE( 'NONE', 'NONE', #69 );
#29 = ADVANCED_BREP_SHAPE_REPRESENTATION( '_K0282.112C(0)', ( #70, #71 ), #6 );
#32 = UNCERTAINTY_MEASURE_WITH_UNIT( LENGTH_MEASURE( 0.00100000000000000 ), #34, '', '' );
#34 =  ( CONVERSION_BASED_UNIT( 'MILLIMETRE', #74 )LENGTH_UNIT(  )NAMED_UNIT( #77 ) );
#35 =  ( NAMED_UNIT( #79 )PLANE_ANGLE_UNIT(  )SI_UNIT( $, .RADIAN. ) );
#36 =  ( NAMED_UNIT( #79 )SI_UNIT( $, .STERADIAN. )SOLID_ANGLE_UNIT(  ) );
#38 = PRESENTATION_STYLE_ASSIGNMENT( ( #85 ) );
#39 = ADVANCED_FACE( '', ( #86 ), #87, .F. );
#40 = PRESENTATION_STYLE_ASSIGNMENT( ( #88 ) );
#41 = ADVANCED_FACE( '', ( #89 ), #90, .T. );
#42 = PRESENTATION_STYLE_ASSIGNMENT( ( #91 ) );
#43 = ADVANCED_FACE( '', ( #92, #93 ), #94, .T. );
#44 = PRESENTATION_STYLE_ASSIGNMENT( ( #95 ) );
#45 = ADVANCED_FACE( '', ( #96, #97 ), #98, .T. );
#46 = PRESENTATION_STYLE_ASSIGNMENT( ( #99 ) );
#47 = ADVANCED_FACE( '', ( #100, #101 ), #102, .T. );
#48 = PRESENTATION_STYLE_ASSIGNMENT( ( #103 ) );
#49 = ADVANCED_FACE( '', ( #104, #105 ), #106, .F. );
#50 = PRESENTATION_STYLE_ASSIGNMENT( ( #107 ) );
#51 = ADVANCED_FACE( '', ( #108, #109 ), #110, .T. );
#52 = PRESENTATION_STYLE_ASSIGNMENT( ( #111 ) );
#53 = ADVANCED_FACE( '', ( #112, #113 ), #114, .T. );
#54 = PRESENTATION_STYLE_ASSIGNMENT( ( #115 ) );
#55 = ADVANCED_FACE( '', ( #116, #117 ), #118, .T. );
#56 = PRESENTATION_STYLE_ASSIGNMENT( ( #119 ) );
#57 = ADVANCED_FACE( '', ( #120 ), #121, .T. );
#58 = PRESENTATION_STYLE_ASSIGNMENT( ( #122 ) );
#59 = ADVANCED_FACE( '', ( #123, #124 ), #125, .T. );
#60 = PRESENTATION_STYLE_ASSIGNMENT( ( #126 ) );
#61 = ADVANCED_FACE( '', ( #127, #128 ), #129, .F. );
#62 = PRESENTATION_STYLE_ASSIGNMENT( ( #130 ) );
#63 = ADVANCED_FACE( '', ( #131 ), #132, .F. );
#64 = PRESENTATION_STYLE_ASSIGNMENT( ( #133 ) );
#65 = ADVANCED_FACE( '', ( #134 ), #135, .T. );
#66 = PRESENTATION_STYLE_ASSIGNMENT( ( #136 ) );
#67 = ADVANCED_FACE( '', ( #137 ), #138, .T. );
#68 = PRODUCT( '_K0282.112C(0)', '_K0282.112C(0)', 'PART-_K0282.112C(0)-DESC', ( #139 ) );
#69 = PRODUCT_DEFINITION( 'NONE', 'NONE', #140, #2 );
#70 = MANIFOLD_SOLID_BREP( '_K0282.112C(0)', #141 );
#71 = AXIS2_PLACEMENT_3D( '', #142, #143, #144 );
#74 = LENGTH_MEASURE_WITH_UNIT( LENGTH_MEASURE( 1.00000000000000 ), #145 );
#77 = DIMENSIONAL_EXPONENTS( 1.00000000000000, 0.000000000000000, 0.000000000000000, 0.000000000000000, 0.000000000000000, 0.000000000000000, 0.000000000000000 );
#79 = DIMENSIONAL_EXPONENTS( 0.000000000000000, 0.000000000000000, 0.000000000000000, 0.000000000000000, 0.000000000000000, 0.000000000000000, 0.000000000000000 );
#85 = SURFACE_STYLE_USAGE( .BOTH., #146 );
#86 = FACE_OUTER_BOUND( '', #147, .T. );
#87 = PLANE( '', #148 );
#88 = SURFACE_STYLE_USAGE( .BOTH., #149 );
#89 = FACE_OUTER_BOUND( '', #150, .T. );
#90 = PLANE( '', #151 );
#91 = SURFACE_STYLE_USAGE( .BOTH., #152 );
#92 = FACE_OUTER_BOUND( '', #153, .T. );
#93 = FACE_OUTER_BOUND( '', #154, .T. );
#94 = CYLINDRICAL_SURFACE( '', #155, 4.92650000000000 );
#95 = SURFACE_STYLE_USAGE( .BOTH., #156 );
#96 = FACE_OUTER_BOUND( '', #157, .T. );
#97 = FACE_OUTER_BOUND( '', #158, .T. );
#98 = SPHERICAL_SURFACE( '', #159, 8.00000000000000 );
#99 = SURFACE_STYLE_USAGE( .BOTH., #160 );
#100 = FACE_OUTER_BOUND( '', #161, .T. );
#101 = FACE_OUTER_BOUND( '', #162, .T. );
#102 = CYLINDRICAL_SURFACE( '', #163, 10.0000000000000 );
#103 = SURFACE_STYLE_USAGE( .BOTH., #164 );
#104 = FACE_BOUND( '', #165, .T. );
#105 = FACE_OUTER_BOUND( '', #166, .T. );
#106 = PLANE( '', #167 );
#107 = SURFACE_STYLE_USAGE( .BOTH., #168 );
#108 = FACE_OUTER_BOUND( '', #169, .T. );
#109 = FACE_BOUND( '', #170, .T. );
#110 = CONICAL_SURFACE( '', #171, 7.88116893100000, 0.703059765800000 );
#111 = SURFACE_STYLE_USAGE( .BOTH., #172 );
#112 = FACE_OUTER_BOUND( '', #173, .T. );
#113 = FACE_BOUND( '', #174, .T. );
#114 = CONICAL_SURFACE( '', #175, 4.92650000000000, 0.785398163400000 );
#115 = SURFACE_STYLE_USAGE( .BOTH., #176 );
#116 = FACE_OUTER_BOUND( '', #177, .T. );
#117 = FACE_OUTER_BOUND( '', #178, .T. );
#118 = CYLINDRICAL_SURFACE( '', #179, 6.00000000000000 );
#119 = SURFACE_STYLE_USAGE( .BOTH., #180 );
#120 = FACE_OUTER_BOUND( '', #181, .T. );
#121 = PLANE( '', #182 );
#122 = SURFACE_STYLE_USAGE( .BOTH., #183 );
#123 = FACE_BOUND( '', #184, .T. );
#124 = FACE_OUTER_BOUND( '', #185, .T. );
#125 = CONICAL_SURFACE( '', #186, 6.00000000000000, 0.785398163400000 );
#126 = SURFACE_STYLE_USAGE( .BOTH., #187 );
#127 = FACE_OUTER_BOUND( '', #188, .T. );
#128 = FACE_BOUND( '', #189, .T. );
#129 = PLANE( '', #190 );
#130 = SURFACE_STYLE_USAGE( .BOTH., #191 );
#131 = FACE_OUTER_BOUND( '', #192, .T. );
#132 = PLANE( '', #193 );
#133 = SURFACE_STYLE_USAGE( .BOTH., #194 );
#134 = FACE_OUTER_BOUND( '', #195, .T. );
#135 = PLANE( '', #196 );
#136 = SURFACE_STYLE_USAGE( .BOTH., #197 );
#137 = FACE_OUTER_BOUND( '', #198, .T. );
#138 = PLANE( '', #199 );
#139 = PRODUCT_CONTEXT( '', #25, 'mechanical' );
#140 = PRODUCT_DEFINITION_FORMATION_WITH_SPECIFIED_SOURCE( ' ', 'NONE', #68, .NOT_KNOWN. );
#141 = CLOSED_SHELL( '', ( #41, #57, #47, #49, #51, #61, #45, #63, #43, #53, #55, #59, #39, #65, #67 ) );
#142 = CARTESIAN_POINT( '', ( 0.000000000000000, 0.000000000000000, 0.000000000000000 ) );
#143 = DIRECTION( '', ( 0.000000000000000, 0.000000000000000, 1.00000000000000 ) );
#144 = DIRECTION( '', ( 1.00000000000000, 0.000000000000000, 0.000000000000000 ) );
#145 =  ( LENGTH_UNIT(  )NAMED_UNIT( #77 )SI_UNIT( .MILLI., .METRE. ) );
#146 = SURFACE_SIDE_STYLE( '', ( #201 ) );
#147 = EDGE_LOOP( '', ( #202 ) );
#148 = AXIS2_PLACEMENT_3D( '', #203, #204, #205 );
#149 = SURFACE_SIDE_STYLE( '', ( #206 ) );
#150 = EDGE_LOOP( '', ( #207, #208, #209, #210 ) );
#151 = AXIS2_PLACEMENT_3D( '', #211, #212, #213 );
#152 = SURFACE_SIDE_STYLE( '', ( #214 ) );
#153 = EDGE_LOOP( '', ( #215 ) );
#154 = EDGE_LOOP( '', ( #216 ) );
#155 = AXIS2_PLACEMENT_3D( '', #217, #218, #219 );
#156 = SURFACE_SIDE_STYLE( '', ( #220 ) );
#157 = EDGE_LOOP( '', ( #221 ) );
#158 = EDGE_LOOP( '', ( #222 ) );
#159 = AXIS2_PLACEMENT_3D( '', #223, #224, #225 );
#160 = SURFACE_SIDE_STYLE( '', ( #226 ) );
#161 = EDGE_LOOP( '', ( #227, #228, #229, #230, #231, #232, #233, #234 ) );
#162 = EDGE_LOOP( '', ( #235 ) );
#163 = AXIS2_PLACEMENT_3D( '', #236, #237, #238 );
#164 = SURFACE_SIDE_STYLE( '', ( #239 ) );
#165 = EDGE_LOOP( '', ( #240 ) );
#166 = EDGE_LOOP( '', ( #241, #242, #243, #244 ) );
#167 = AXIS2_PLACEMENT_3D( '', #245, #246, #247 );
#168 = SURFACE_SIDE_STYLE( '', ( #248 ) );
#169 = EDGE_LOOP( '', ( #249 ) );
#170 = EDGE_LOOP( '', ( #250 ) );
#171 = AXIS2_PLACEMENT_3D( '', #251, #252, #253 );
#172 = SURFACE_SIDE_STYLE( '', ( #254 ) );
#173 = EDGE_LOOP( '', ( #255 ) );
#174 = EDGE_LOOP( '', ( #256 ) );
#175 = AXIS2_PLACEMENT_3D( '', #257, #258, #259 );
#176 = SURFACE_SIDE_STYLE( '', ( #260 ) );
#177 = EDGE_LOOP( '', ( #261 ) );
#178 = EDGE_LOOP( '', ( #262 ) );
#179 = AXIS2_PLACEMENT_3D( '', #263, #264, #265 );
#180 = SURFACE_SIDE_STYLE( '', ( #266 ) );
#181 = EDGE_LOOP( '', ( #267, #268 ) );
#182 = AXIS2_PLACEMENT_3D( '', #269, #270, #271 );
#183 = SURFACE_SIDE_STYLE( '', ( #272 ) );
#184 = EDGE_LOOP( '', ( #273 ) );
#185 = EDGE_LOOP( '', ( #274 ) );
#186 = AXIS2_PLACEMENT_3D( '', #275, #276, #277 );
#187 = SURFACE_SIDE_STYLE( '', ( #278 ) );
#188 = EDGE_LOOP( '', ( #279 ) );
#189 = EDGE_LOOP( '', ( #280 ) );
#190 = AXIS2_PLACEMENT_3D( '', #281, #282, #283 );
#191 = SURFACE_SIDE_STYLE( '', ( #284 ) );
#192 = EDGE_LOOP( '', ( #285 ) );
#193 = AXIS2_PLACEMENT_3D( '', #286, #287, #288 );
#194 = SURFACE_SIDE_STYLE( '', ( #289 ) );
#195 = EDGE_LOOP( '', ( #290, #291, #292, #293 ) );
#196 = AXIS2_PLACEMENT_3D( '', #294, #295, #296 );
#197 = SURFACE_SIDE_STYLE( '', ( #297 ) );
#198 = EDGE_LOOP( '', ( #298, #299 ) );
#199 = AXIS2_PLACEMENT_3D( '', #300, #301, #302 );
#201 = SURFACE_STYLE_FILL_AREA( #303 );
#202 = ORIENTED_EDGE( '', *, *, #304, .T. );
#203 = CARTESIAN_POINT( '', ( 4.92650000000000, 1.08420217248550E-16, 0.000000000000000 ) );
#204 = DIRECTION( '', ( 0.000000000000000, 1.00000000000000, 0.000000000000000 ) );
#205 = DIRECTION( '', ( 0.000000000000000, -0.000000000000000, 1.00000000000000 ) );
#206 = SURFACE_STYLE_FILL_AREA( #305 );
#207 = ORIENTED_EDGE( '', *, *, #306, .T. );
#208 = ORIENTED_EDGE( '', *, *, #307, .T. );
#209 = ORIENTED_EDGE( '', *, *, #308, .T. );
#210 = ORIENTED_EDGE( '', *, *, #309, .F. );
#211 = CARTESIAN_POINT( '', ( 8.50000000000000, 19.0000000000000, 15.0000000000000 ) );
#212 = DIRECTION( '', ( 1.00000000000000, 0.000000000000000, -0.000000000000000 ) );
#213 = DIRECTION( '', ( -0.000000000000000, 0.000000000000000, -1.00000000000000 ) );
#214 = SURFACE_STYLE_FILL_AREA( #310 );
#215 = ORIENTED_EDGE( '', *, *, #311, .F. );
#216 = ORIENTED_EDGE( '', *, *, #312, .T. );
#217 = CARTESIAN_POINT( '', ( 0.000000000000000, 0.000000000000000, 0.000000000000000 ) );
#218 = DIRECTION( '', ( -0.000000000000000, 1.00000000000000, 0.000000000000000 ) );
#219 = DIRECTION( '', ( 0.000000000000000, 0.000000000000000, -1.00000000000000 ) );
#220 = SURFACE_STYLE_FILL_AREA( #313 );
#221 = ORIENTED_EDGE( '', *, *, #314, .T. );
#222 = ORIENTED_EDGE( '', *, *, #315, .T. );
#223 = CARTESIAN_POINT( '', ( -1.38777878078145E-14, 23.9636517661752, 0.000000000000000 ) );
#224 = DIRECTION( '', ( 0.000000000000000, -1.00000000000000, 0.000000000000000 ) );
#225 = DIRECTION( '', ( 1.00000000000000, 0.000000000000000, 0.000000000000000 ) );
#226 = SURFACE_STYLE_FILL_AREA( #316 );
#227 = ORIENTED_EDGE( '', *, *, #306, .F. );
#228 = ORIENTED_EDGE( '', *, *, #317, .F. );
#229 = ORIENTED_EDGE( '', *, *, #308, .F. );
#230 = ORIENTED_EDGE( '', *, *, #318, .F. );
#231 = ORIENTED_EDGE( '', *, *, #319, .F. );
#232 = ORIENTED_EDGE( '', *, *, #320, .F. );
#233 = ORIENTED_EDGE( '', *, *, #321, .F. );
#234 = ORIENTED_EDGE( '', *, *, #322, .F. );
#235 = ORIENTED_EDGE( '', *, *, #323, .T. );
#236 = CARTESIAN_POINT( '', ( 0.000000000000000, 0.000000000000000, 0.000000000000000 ) );
#237 = DIRECTION( '', ( -0.000000000000000, 1.00000000000000, 0.000000000000000 ) );
#238 = DIRECTION( '', ( 0.000000000000000, 0.000000000000000, -1.00000000000000 ) );
#239 = SURFACE_STYLE_FILL_AREA( #324 );
#240 = ORIENTED_EDGE( '', *, *, #312, .F. );
#241 = ORIENTED_EDGE( '', *, *, #307, .F. );
#242 = ORIENTED_EDGE( '', *, *, #322, .T. );
#243 = ORIENTED_EDGE( '', *, *, #325, .F. );
#244 = ORIENTED_EDGE( '', *, *, #318, .T. );
#245 = CARTESIAN_POINT( '', ( 10.0000000000000, 12.0000000000000, 0.000000000000000 ) );
#246 = DIRECTION( '', ( 0.000000000000000, 1.00000000000000, 0.000000000000000 ) );
#247 = DIRECTION( '', ( 0.000000000000000, -0.000000000000000, 1.00000000000000 ) );
#248 = SURFACE_STYLE_FILL_AREA( #326 );
#249 = ORIENTED_EDGE( '', *, *, #323, .F. );
#250 = ORIENTED_EDGE( '', *, *, #327, .T. );
#251 = CARTESIAN_POINT( '', ( 0.000000000000000, 26.5000000000000, 0.000000000000000 ) );
#252 = DIRECTION( '', ( -0.000000000000000, -1.00000000000000, -0.000000000000000 ) );
#253 = DIRECTION( '', ( 0.000000000000000, 0.000000000000000, -1.00000000000000 ) );
#254 = SURFACE_STYLE_FILL_AREA( #328 );
#255 = ORIENTED_EDGE( '', *, *, #329, .F. );
#256 = ORIENTED_EDGE( '', *, *, #311, .T. );
#257 = CARTESIAN_POINT( '', ( 0.000000000000000, 9.00000000000000, 0.000000000000000 ) );
#258 = DIRECTION( '', ( -0.000000000000000, -1.00000000000000, -0.000000000000000 ) );
#259 = DIRECTION( '', ( 0.000000000000000, 0.000000000000000, -1.00000000000000 ) );
#260 = SURFACE_STYLE_FILL_AREA( #330 );
#261 = ORIENTED_EDGE( '', *, *, #331, .F. );
#262 = ORIENTED_EDGE( '', *, *, #329, .T. );
#263 = CARTESIAN_POINT( '', ( 0.000000000000000, 0.000000000000000, 0.000000000000000 ) );
#264 = DIRECTION( '', ( -0.000000000000000, 1.00000000000000, 0.000000000000000 ) );
#265 = DIRECTION( '', ( 0.000000000000000, 0.000000000000000, -1.00000000000000 ) );
#266 = SURFACE_STYLE_FILL_AREA( #332 );
#267 = ORIENTED_EDGE( '', *, *, #317, .T. );
#268 = ORIENTED_EDGE( '', *, *, #309, .T. );
#269 = CARTESIAN_POINT( '', ( 15.0000000000000, 19.0000000000000, 15.0000000000000 ) );
#270 = DIRECTION( '', ( 0.000000000000000, -1.00000000000000, 0.000000000000000 ) );
#271 = DIRECTION( '', ( 0.000000000000000, 0.000000000000000, -1.00000000000000 ) );
#272 = SURFACE_STYLE_FILL_AREA( #333 );
#273 = ORIENTED_EDGE( '', *, *, #304, .F. );
#274 = ORIENTED_EDGE( '', *, *, #331, .T. );
#275 = CARTESIAN_POINT( '', ( 0.000000000000000, 1.07350000000000, 0.000000000000000 ) );
#276 = DIRECTION( '', ( -0.000000000000000, 1.00000000000000, 0.000000000000000 ) );
#277 = DIRECTION( '', ( 0.000000000000000, -0.000000000000000, 1.00000000000000 ) );
#278 = SURFACE_STYLE_FILL_AREA( #334 );
#279 = ORIENTED_EDGE( '', *, *, #327, .F. );
#280 = ORIENTED_EDGE( '', *, *, #315, .F. );
#281 = CARTESIAN_POINT( '', ( 7.58116893095496, 26.5000000000000, 0.000000000000000 ) );
#282 = DIRECTION( '', ( 0.000000000000000, -1.00000000000000, -0.000000000000000 ) );
#283 = DIRECTION( '', ( 0.000000000000000, 0.000000000000000, -1.00000000000000 ) );
#284 = SURFACE_STYLE_FILL_AREA( #335 );
#285 = ORIENTED_EDGE( '', *, *, #314, .F. );
#286 = CARTESIAN_POINT( '', ( 0.000000000000000, 30.0000000000000, 0.000000000000000 ) );
#287 = DIRECTION( '', ( 0.000000000000000, -1.00000000000000, -0.000000000000000 ) );
#288 = DIRECTION( '', ( 0.000000000000000, 0.000000000000000, -1.00000000000000 ) );
#289 = SURFACE_STYLE_FILL_AREA( #336 );
#290 = ORIENTED_EDGE( '', *, *, #319, .T. );
#291 = ORIENTED_EDGE( '', *, *, #325, .T. );
#292 = ORIENTED_EDGE( '', *, *, #321, .T. );
#293 = ORIENTED_EDGE( '', *, *, #337, .T. );
#294 = CARTESIAN_POINT( '', ( -8.50000000000000, 0.000000000000000, 15.0000000000000 ) );
#295 = DIRECTION( '', ( -1.00000000000000, 0.000000000000000, 0.000000000000000 ) );
#296 = DIRECTION( '', ( 0.000000000000000, 0.000000000000000, 1.00000000000000 ) );
#297 = SURFACE_STYLE_FILL_AREA( #338 );
#298 = ORIENTED_EDGE( '', *, *, #320, .T. );
#299 = ORIENTED_EDGE( '', *, *, #337, .F. );
#300 = CARTESIAN_POINT( '', ( -8.50000000000000, 19.0000000000000, 15.0000000000000 ) );
#301 = DIRECTION( '', ( 0.000000000000000, -1.00000000000000, 0.000000000000000 ) );
#302 = DIRECTION( '', ( 0.000000000000000, 0.000000000000000, -1.00000000000000 ) );
#303 = FILL_AREA_STYLE( '', ( #339 ) );
#304 = EDGE_CURVE( '', #340, #340, #341, .T. );
#305 = FILL_AREA_STYLE( '', ( #342 ) );
#306 = EDGE_CURVE( '', #343, #344, #345, .T. );
#307 = EDGE_CURVE( '', #344, #346, #347, .T. );
#308 = EDGE_CURVE( '', #346, #348, #349, .F. );
#309 = EDGE_CURVE( '', #343, #348, #350, .T. );
#310 = FILL_AREA_STYLE( '', ( #351 ) );
#311 = EDGE_CURVE( '', #352, #352, #353, .T. );
#312 = EDGE_CURVE( '', #354, #354, #355, .T. );
#313 = FILL_AREA_STYLE( '', ( #356 ) );
#314 = EDGE_CURVE( '', #357, #357, #358, .T. );
#315 = EDGE_CURVE( '', #359, #359, #360, .F. );
#316 = FILL_AREA_STYLE( '', ( #361 ) );
#317 = EDGE_CURVE( '', #348, #343, #362, .T. );
#318 = EDGE_CURVE( '', #363, #346, #364, .T. );
#319 = EDGE_CURVE( '', #365, #363, #366, .T. );
#320 = EDGE_CURVE( '', #367, #365, #368, .T. );
#321 = EDGE_CURVE( '', #369, #367, #370, .F. );
#322 = EDGE_CURVE( '', #344, #369, #371, .T. );
#323 = EDGE_CURVE( '', #372, #372, #373, .T. );
#324 = FILL_AREA_STYLE( '', ( #374 ) );
#325 = EDGE_CURVE( '', #363, #369, #375, .T. );
#326 = FILL_AREA_STYLE( '', ( #376 ) );
#327 = EDGE_CURVE( '', #377, #377, #378, .T. );
#328 = FILL_AREA_STYLE( '', ( #379 ) );
#329 = EDGE_CURVE( '', #380, #380, #381, .T. );
#330 = FILL_AREA_STYLE( '', ( #382 ) );
#331 = EDGE_CURVE( '', #383, #383, #384, .T. );
#332 = FILL_AREA_STYLE( '', ( #385 ) );
#333 = FILL_AREA_STYLE( '', ( #386 ) );
#334 = FILL_AREA_STYLE( '', ( #387 ) );
#335 = FILL_AREA_STYLE( '', ( #388 ) );
#336 = FILL_AREA_STYLE( '', ( #389 ) );
#337 = EDGE_CURVE( '', #367, #365, #390, .T. );
#338 = FILL_AREA_STYLE( '', ( #391 ) );
#339 = FILL_AREA_STYLE_COLOUR( '', #392 );
#340 = VERTEX_POINT( '', #393 );
#341 = CIRCLE( '', #394, 4.92650000000000 );
#342 = FILL_AREA_STYLE_COLOUR( '', #395 );
#343 = VERTEX_POINT( '', #396 );
#344 = VERTEX_POINT( '', #397 );
#345 = LINE( '', #398, #399 );
#346 = VERTEX_POINT( '', #400 );
#347 = LINE( '', #401, #402 );
#348 = VERTEX_POINT( '', #403 );
#349 = LINE( '', #404, #405 );
#350 = LINE( '', #406, #407 );
#351 = FILL_AREA_STYLE_COLOUR( '', #408 );
#352 = VERTEX_POINT( '', #409 );
#353 = CIRCLE( '', #410, 4.92650000000000 );
#354 = VERTEX_POINT( '', #411 );
#355 = CIRCLE( '', #412, 4.92650000000000 );
#356 = FILL_AREA_STYLE_COLOUR( '', #413 );
#357 = VERTEX_POINT( '', #414 );
#358 = CIRCLE( '', #415, 5.25000000000000 );
#359 = VERTEX_POINT( '', #416 );
#360 = CIRCLE( '', #417, 7.58728789730000 );
#361 = FILL_AREA_STYLE_COLOUR( '', #418 );
#362 = CIRCLE( '', #419, 10.0000000000000 );
#363 = VERTEX_POINT( '', #420 );
#364 = CIRCLE( '', #421, 10.0000000000000 );
#365 = VERTEX_POINT( '', #422 );
#366 = LINE( '', #423, #424 );
#367 = VERTEX_POINT( '', #425 );
#368 = CIRCLE( '', #426, 10.0000000000000 );
#369 = VERTEX_POINT( '', #427 );
#370 = LINE( '', #428, #429 );
#371 = CIRCLE( '', #430, 10.0000000000000 );
#372 = VERTEX_POINT( '', #431 );
#373 = CIRCLE( '', #432, 10.0000000000000 );
#374 = FILL_AREA_STYLE_COLOUR( '', #433 );
#375 = LINE( '', #434, #435 );
#376 = FILL_AREA_STYLE_COLOUR( '', #436 );
#377 = VERTEX_POINT( '', #437 );
#378 = CIRCLE( '', #438, 7.88116893100000 );
#379 = FILL_AREA_STYLE_COLOUR( '', #439 );
#380 = VERTEX_POINT( '', #440 );
#381 = CIRCLE( '', #441, 6.00000000000000 );
#382 = FILL_AREA_STYLE_COLOUR( '', #442 );
#383 = VERTEX_POINT( '', #443 );
#384 = CIRCLE( '', #444, 6.00000000000000 );
#385 = FILL_AREA_STYLE_COLOUR( '', #445 );
#386 = FILL_AREA_STYLE_COLOUR( '', #446 );
#387 = FILL_AREA_STYLE_COLOUR( '', #447 );
#388 = FILL_AREA_STYLE_COLOUR( '', #448 );
#389 = FILL_AREA_STYLE_COLOUR( '', #449 );
#390 = LINE( '', #450, #451 );
#391 = FILL_AREA_STYLE_COLOUR( '', #452 );
#392 = COLOUR_RGB( '', 0.689999997600000, 0.689999997600000, 0.689999997600000 );
#393 = CARTESIAN_POINT( '', ( 0.000000000000000, 2.16840434497101E-16, -4.92650000000000 ) );
#394 = AXIS2_PLACEMENT_3D( '', #453, #454, #455 );
#395 = COLOUR_RGB( '', 0.689999997600000, 0.689999997600000, 0.689999997600000 );
#396 = CARTESIAN_POINT( '', ( 8.50000000000000, 19.0000000000000, 5.26782687642637 ) );
#397 = CARTESIAN_POINT( '', ( 8.50000000000000, 12.0000000000000, 5.26782687642637 ) );
#398 = CARTESIAN_POINT( '', ( 8.50000000000000, 0.000000000000000, 5.26782687642637 ) );
#399 = VECTOR( '', #456, 1000.00000000000 );
#400 = CARTESIAN_POINT( '', ( 8.50000000000000, 12.0000000000000, -5.26782687642637 ) );
#401 = CARTESIAN_POINT( '', ( 8.50000000000000, 12.0000000000000, 0.000000000000000 ) );
#402 = VECTOR( '', #457, 1000.00000000000 );
#403 = CARTESIAN_POINT( '', ( 8.50000000000000, 19.0000000000000, -5.26782687642637 ) );
#404 = CARTESIAN_POINT( '', ( 8.50000000000000, 0.000000000000000, -5.26782687642637 ) );
#405 = VECTOR( '', #458, 1000.00000000000 );
#406 = CARTESIAN_POINT( '', ( 8.50000000000000, 19.0000000000000, 15.0000000000000 ) );
#407 = VECTOR( '', #459, 1000.00000000000 );
#408 = COLOUR_RGB( '', 0.689999997600000, 0.689999997600000, 0.689999997600000 );
#409 = CARTESIAN_POINT( '', ( 0.000000000000000, 9.00000000000000, -4.92650000000000 ) );
#410 = AXIS2_PLACEMENT_3D( '', #460, #461, #462 );
#411 = CARTESIAN_POINT( '', ( 0.000000000000000, 12.0000000000000, -4.92650000000000 ) );
#412 = AXIS2_PLACEMENT_3D( '', #463, #464, #465 );
#413 = COLOUR_RGB( '', 0.689999997600000, 0.689999997600000, 0.689999997600000 );
#414 = CARTESIAN_POINT( '', ( 0.000000000000000, 30.0000000000000, -5.25000000000000 ) );
#415 = AXIS2_PLACEMENT_3D( '', #466, #467, #468 );
#416 = CARTESIAN_POINT( '', ( -1.38777878078145E-14, 26.5000000000000, -7.58728789731705 ) );
#417 = AXIS2_PLACEMENT_3D( '', #469, #470, #471 );
#418 = COLOUR_RGB( '', 0.689999997600000, 0.689999997600000, 0.689999997600000 );
#419 = AXIS2_PLACEMENT_3D( '', #472, #473, #474 );
#420 = CARTESIAN_POINT( '', ( -8.50000000000000, 12.0000000000000, -5.26782687642637 ) );
#421 = AXIS2_PLACEMENT_3D( '', #475, #476, #477 );
#422 = CARTESIAN_POINT( '', ( -8.50000000000000, 19.0000000000000, -5.26782687642637 ) );
#423 = CARTESIAN_POINT( '', ( -8.50000000000000, 0.000000000000000, -5.26782687642637 ) );
#424 = VECTOR( '', #478, 1000.00000000000 );
#425 = CARTESIAN_POINT( '', ( -8.50000000000000, 19.0000000000000, 5.26782687642637 ) );
#426 = AXIS2_PLACEMENT_3D( '', #479, #480, #481 );
#427 = CARTESIAN_POINT( '', ( -8.50000000000000, 12.0000000000000, 5.26782687642637 ) );
#428 = CARTESIAN_POINT( '', ( -8.50000000000000, 0.000000000000000, 5.26782687642637 ) );
#429 = VECTOR( '', #482, 1000.00000000000 );
#430 = AXIS2_PLACEMENT_3D( '', #483, #484, #485 );
#431 = CARTESIAN_POINT( '', ( 0.000000000000000, 24.0000000000000, -10.0000000000000 ) );
#432 = AXIS2_PLACEMENT_3D( '', #486, #487, #488 );
#433 = COLOUR_RGB( '', 0.689999997600000, 0.689999997600000, 0.689999997600000 );
#434 = CARTESIAN_POINT( '', ( -8.50000000000000, 12.0000000000000, 0.000000000000000 ) );
#435 = VECTOR( '', #489, 1000.00000000000 );
#436 = COLOUR_RGB( '', 0.689999997600000, 0.689999997600000, 0.689999997600000 );
#437 = CARTESIAN_POINT( '', ( 0.000000000000000, 26.5000000000000, -7.88116893095496 ) );
#438 = AXIS2_PLACEMENT_3D( '', #490, #491, #492 );
#439 = COLOUR_RGB( '', 0.689999997600000, 0.689999997600000, 0.689999997600000 );
#440 = CARTESIAN_POINT( '', ( 0.000000000000000, 7.92650000000000, -6.00000000000000 ) );
#441 = AXIS2_PLACEMENT_3D( '', #493, #494, #495 );
#442 = COLOUR_RGB( '', 0.689999997600000, 0.689999997600000, 0.689999997600000 );
#443 = CARTESIAN_POINT( '', ( 0.000000000000000, 1.07350000000000, -6.00000000000000 ) );
#444 = AXIS2_PLACEMENT_3D( '', #496, #497, #498 );
#445 = COLOUR_RGB( '', 0.689999997600000, 0.689999997600000, 0.689999997600000 );
#446 = COLOUR_RGB( '', 0.689999997600000, 0.689999997600000, 0.689999997600000 );
#447 = COLOUR_RGB( '', 0.689999997600000, 0.689999997600000, 0.689999997600000 );
#448 = COLOUR_RGB( '', 0.689999997600000, 0.689999997600000, 0.689999997600000 );
#449 = COLOUR_RGB( '', 0.689999997600000, 0.689999997600000, 0.689999997600000 );
#450 = CARTESIAN_POINT( '', ( -8.50000000000000, 19.0000000000000, 15.0000000000000 ) );
#451 = VECTOR( '', #499, 1000.00000000000 );
#452 = COLOUR_RGB( '', 0.689999997600000, 0.689999997600000, 0.689999997600000 );
#453 = CARTESIAN_POINT( '', ( 0.000000000000000, 2.16840434497101E-16, 0.000000000000000 ) );
#454 = DIRECTION( '', ( 0.000000000000000, -1.00000000000000, -0.000000000000000 ) );
#455 = DIRECTION( '', ( 0.000000000000000, 0.000000000000000, -1.00000000000000 ) );
#456 = DIRECTION( '', ( -0.000000000000000, -1.00000000000000, -0.000000000000000 ) );
#457 = DIRECTION( '', ( -0.000000000000000, 0.000000000000000, -1.00000000000000 ) );
#458 = DIRECTION( '', ( -0.000000000000000, -1.00000000000000, -0.000000000000000 ) );
#459 = DIRECTION( '', ( -0.000000000000000, -0.000000000000000, -1.00000000000000 ) );
#460 = CARTESIAN_POINT( '', ( 0.000000000000000, 9.00000000000000, 0.000000000000000 ) );
#461 = DIRECTION( '', ( 0.000000000000000, -1.00000000000000, -0.000000000000000 ) );
#462 = DIRECTION( '', ( 0.000000000000000, 0.000000000000000, -1.00000000000000 ) );
#463 = CARTESIAN_POINT( '', ( 0.000000000000000, 12.0000000000000, 0.000000000000000 ) );
#464 = DIRECTION( '', ( 0.000000000000000, -1.00000000000000, -0.000000000000000 ) );
#465 = DIRECTION( '', ( 0.000000000000000, 0.000000000000000, -1.00000000000000 ) );
#466 = CARTESIAN_POINT( '', ( 0.000000000000000, 30.0000000000000, 0.000000000000000 ) );
#467 = DIRECTION( '', ( 0.000000000000000, -1.00000000000000, -0.000000000000000 ) );
#468 = DIRECTION( '', ( 0.000000000000000, 0.000000000000000, -1.00000000000000 ) );
#469 = CARTESIAN_POINT( '', ( -1.38777878078145E-14, 26.5000000000000, 0.000000000000000 ) );
#470 = DIRECTION( '', ( 0.000000000000000, -1.00000000000000, -0.000000000000000 ) );
#471 = DIRECTION( '', ( 0.000000000000000, 0.000000000000000, -1.00000000000000 ) );
#472 = CARTESIAN_POINT( '', ( 0.000000000000000, 19.0000000000000, 0.000000000000000 ) );
#473 = DIRECTION( '', ( 0.000000000000000, -1.00000000000000, 0.000000000000000 ) );
#474 = DIRECTION( '', ( 0.000000000000000, 0.000000000000000, -1.00000000000000 ) );
#475 = CARTESIAN_POINT( '', ( 0.000000000000000, 12.0000000000000, 0.000000000000000 ) );
#476 = DIRECTION( '', ( 0.000000000000000, -1.00000000000000, -0.000000000000000 ) );
#477 = DIRECTION( '', ( 0.000000000000000, 0.000000000000000, -1.00000000000000 ) );
#478 = DIRECTION( '', ( -0.000000000000000, -1.00000000000000, -0.000000000000000 ) );
#479 = CARTESIAN_POINT( '', ( 0.000000000000000, 19.0000000000000, 0.000000000000000 ) );
#480 = DIRECTION( '', ( 0.000000000000000, -1.00000000000000, 0.000000000000000 ) );
#481 = DIRECTION( '', ( 0.000000000000000, 0.000000000000000, -1.00000000000000 ) );
#482 = DIRECTION( '', ( -0.000000000000000, -1.00000000000000, -0.000000000000000 ) );
#483 = CARTESIAN_POINT( '', ( 0.000000000000000, 12.0000000000000, 0.000000000000000 ) );
#484 = DIRECTION( '', ( 0.000000000000000, -1.00000000000000, -0.000000000000000 ) );
#485 = DIRECTION( '', ( 0.000000000000000, 0.000000000000000, -1.00000000000000 ) );
#486 = CARTESIAN_POINT( '', ( 0.000000000000000, 24.0000000000000, 0.000000000000000 ) );
#487 = DIRECTION( '', ( 0.000000000000000, -1.00000000000000, -0.000000000000000 ) );
#488 = DIRECTION( '', ( 0.000000000000000, 0.000000000000000, -1.00000000000000 ) );
#489 = DIRECTION( '', ( 0.000000000000000, -0.000000000000000, 1.00000000000000 ) );
#490 = CARTESIAN_POINT( '', ( 0.000000000000000, 26.5000000000000, 0.000000000000000 ) );
#491 = DIRECTION( '', ( 0.000000000000000, -1.00000000000000, -0.000000000000000 ) );
#492 = DIRECTION( '', ( 0.000000000000000, 0.000000000000000, -1.00000000000000 ) );
#493 = CARTESIAN_POINT( '', ( 0.000000000000000, 7.92650000000000, 0.000000000000000 ) );
#494 = DIRECTION( '', ( 0.000000000000000, -1.00000000000000, -0.000000000000000 ) );
#495 = DIRECTION( '', ( 0.000000000000000, 0.000000000000000, -1.00000000000000 ) );
#496 = CARTESIAN_POINT( '', ( 0.000000000000000, 1.07350000000000, 0.000000000000000 ) );
#497 = DIRECTION( '', ( 0.000000000000000, -1.00000000000000, -0.000000000000000 ) );
#498 = DIRECTION( '', ( 0.000000000000000, 0.000000000000000, -1.00000000000000 ) );
#499 = DIRECTION( '', ( -0.000000000000000, -0.000000000000000, -1.00000000000000 ) );
ENDSEC;
END-ISO-10303-21;
