ISO-10303-21;
HEADER;
FILE_DESCRIPTION( ( 'STEP AP214' ), '1' );
FILE_NAME( '//goodhand-server/Shared Folders/GoodHand Data/Kipp CAD/K0758/K0758.100010X1000.stp', '2020-12-10T08:50:32', ( '' ), ( '' ), ' ', 'PARTsolutions', ' ' );
FILE_SCHEMA( ( 'AUTOMOTIVE_DESIGN { 1 0 10303 214 1 1 1 1 }' ) );
ENDSEC;
DATA;
#1 = MECHANICAL_DESIGN_GEOMETRIC_PRESENTATION_REPRESENTATION( ' ', ( #10, #11, #12, #13, #14, #15, #16, #17, #18, #19, #20, #21 ), #6 );
#2 = PRODUCT_DEFINITION_CONTEXT( '', #22, 'design' );
#3 = APPLICATION_PROTOCOL_DEFINITION( 'international standard', 'automotive_design', 2001, #22 );
#4 = PRODUCT_CATEGORY_RELATIONSHIP( 'NONE', 'NONE', #23, #24 );
#5 = SHAPE_DEFINITION_REPRESENTATION( #25, #26 );
#6 =  ( GEOMETRIC_REPRESENTATION_CONTEXT( 3 )GLOBAL_UNCERTAINTY_ASSIGNED_CONTEXT( ( #29 ) )GLOBAL_UNIT_ASSIGNED_CONTEXT( ( #31, #32, #33 ) )REPRESENTATION_CONTEXT( 'NONE', 'WORKSPACE' ) );
#10 = STYLED_ITEM( '', ( #35 ), #36 );
#11 = STYLED_ITEM( '', ( #37 ), #38 );
#12 = STYLED_ITEM( '', ( #39 ), #40 );
#13 = STYLED_ITEM( '', ( #41 ), #42 );
#14 = STYLED_ITEM( '', ( #43 ), #44 );
#15 = STYLED_ITEM( '', ( #45 ), #46 );
#16 = STYLED_ITEM( '', ( #47 ), #48 );
#17 = STYLED_ITEM( '', ( #49 ), #50 );
#18 = STYLED_ITEM( '', ( #51 ), #52 );
#19 = STYLED_ITEM( '', ( #53 ), #54 );
#20 = STYLED_ITEM( '', ( #55 ), #56 );
#21 = STYLED_ITEM( '', ( #57 ), #58 );
#22 = APPLICATION_CONTEXT( 'core data for automotive mechanical design processes' );
#23 = PRODUCT_CATEGORY( 'part', 'NONE' );
#24 = PRODUCT_RELATED_PRODUCT_CATEGORY( 'detail', ' ', ( #59 ) );
#25 = PRODUCT_DEFINITION_SHAPE( 'NONE', 'NONE', #60 );
#26 = ADVANCED_BREP_SHAPE_REPRESENTATION( '_K0758.100010X1000', ( #61, #62 ), #6 );
#29 = UNCERTAINTY_MEASURE_WITH_UNIT( LENGTH_MEASURE( 0.00100000000000000 ), #31, '', '' );
#31 =  ( CONVERSION_BASED_UNIT( 'MILLIMETRE', #65 )LENGTH_UNIT(  )NAMED_UNIT( #68 ) );
#32 =  ( NAMED_UNIT( #70 )PLANE_ANGLE_UNIT(  )SI_UNIT( $, .RADIAN. ) );
#33 =  ( NAMED_UNIT( #70 )SI_UNIT( $, .STERADIAN. )SOLID_ANGLE_UNIT(  ) );
#35 = PRESENTATION_STYLE_ASSIGNMENT( ( #76 ) );
#36 = ADVANCED_FACE( '', ( #77, #78, #79, #80 ), #81, .F. );
#37 = PRESENTATION_STYLE_ASSIGNMENT( ( #82 ) );
#38 = ADVANCED_FACE( '', ( #83, #84 ), #85, .F. );
#39 = PRESENTATION_STYLE_ASSIGNMENT( ( #86 ) );
#40 = ADVANCED_FACE( '', ( #87 ), #88, .F. );
#41 = PRESENTATION_STYLE_ASSIGNMENT( ( #89 ) );
#42 = ADVANCED_FACE( '', ( #90 ), #91, .F. );
#43 = PRESENTATION_STYLE_ASSIGNMENT( ( #92 ) );
#44 = ADVANCED_FACE( '', ( #93, #94 ), #95, .F. );
#45 = PRESENTATION_STYLE_ASSIGNMENT( ( #96 ) );
#46 = ADVANCED_FACE( '', ( #97 ), #98, .F. );
#47 = PRESENTATION_STYLE_ASSIGNMENT( ( #99 ) );
#48 = ADVANCED_FACE( '', ( #100, #101 ), #102, .F. );
#49 = PRESENTATION_STYLE_ASSIGNMENT( ( #103 ) );
#50 = ADVANCED_FACE( '', ( #104 ), #105, .F. );
#51 = PRESENTATION_STYLE_ASSIGNMENT( ( #106 ) );
#52 = ADVANCED_FACE( '', ( #107, #108 ), #109, .F. );
#53 = PRESENTATION_STYLE_ASSIGNMENT( ( #110 ) );
#54 = ADVANCED_FACE( '', ( #111, #112, #113, #114 ), #115, .T. );
#55 = PRESENTATION_STYLE_ASSIGNMENT( ( #116 ) );
#56 = ADVANCED_FACE( '', ( #117, #118 ), #119, .F. );
#57 = PRESENTATION_STYLE_ASSIGNMENT( ( #120 ) );
#58 = ADVANCED_FACE( '', ( #121, #122 ), #123, .F. );
#59 = PRODUCT( '_K0758.100010X1000', '_K0758.100010X1000', 'PART-_K0758.100010X1000-DESC', ( #124 ) );
#60 = PRODUCT_DEFINITION( 'NONE', 'NONE', #125, #2 );
#61 = MANIFOLD_SOLID_BREP( '_K0758.100010X1000', #126 );
#62 = AXIS2_PLACEMENT_3D( '', #127, #128, #129 );
#65 = LENGTH_MEASURE_WITH_UNIT( LENGTH_MEASURE( 1.00000000000000 ), #130 );
#68 = DIMENSIONAL_EXPONENTS( 1.00000000000000, 0.000000000000000, 0.000000000000000, 0.000000000000000, 0.000000000000000, 0.000000000000000, 0.000000000000000 );
#70 = DIMENSIONAL_EXPONENTS( 0.000000000000000, 0.000000000000000, 0.000000000000000, 0.000000000000000, 0.000000000000000, 0.000000000000000, 0.000000000000000 );
#76 = SURFACE_STYLE_USAGE( .BOTH., #131 );
#77 = FACE_BOUND( '', #132, .T. );
#78 = FACE_BOUND( '', #133, .T. );
#79 = FACE_BOUND( '', #134, .T. );
#80 = FACE_OUTER_BOUND( '', #135, .T. );
#81 = PLANE( '', #136 );
#82 = SURFACE_STYLE_USAGE( .BOTH., #137 );
#83 = FACE_OUTER_BOUND( '', #138, .T. );
#84 = FACE_OUTER_BOUND( '', #139, .T. );
#85 = CYLINDRICAL_SURFACE( '', #140, 2.75000000000000 );
#86 = SURFACE_STYLE_USAGE( .BOTH., #141 );
#87 = FACE_OUTER_BOUND( '', #142, .T. );
#88 = PLANE( '', #143 );
#89 = SURFACE_STYLE_USAGE( .BOTH., #144 );
#90 = FACE_OUTER_BOUND( '', #145, .T. );
#91 = PLANE( '', #146 );
#92 = SURFACE_STYLE_USAGE( .BOTH., #147 );
#93 = FACE_OUTER_BOUND( '', #148, .T. );
#94 = FACE_OUTER_BOUND( '', #149, .T. );
#95 = CYLINDRICAL_SURFACE( '', #150, 2.75000000000000 );
#96 = SURFACE_STYLE_USAGE( .BOTH., #151 );
#97 = FACE_OUTER_BOUND( '', #152, .T. );
#98 = PLANE( '', #153 );
#99 = SURFACE_STYLE_USAGE( .BOTH., #154 );
#100 = FACE_OUTER_BOUND( '', #155, .T. );
#101 = FACE_OUTER_BOUND( '', #156, .T. );
#102 = CYLINDRICAL_SURFACE( '', #157, 2.75000000000000 );
#103 = SURFACE_STYLE_USAGE( .BOTH., #158 );
#104 = FACE_OUTER_BOUND( '', #159, .T. );
#105 = PLANE( '', #160 );
#106 = SURFACE_STYLE_USAGE( .BOTH., #161 );
#107 = FACE_BOUND( '', #162, .T. );
#108 = FACE_OUTER_BOUND( '', #163, .T. );
#109 = CONICAL_SURFACE( '', #164, 5.75000000000000, 0.785398163400000 );
#110 = SURFACE_STYLE_USAGE( .BOTH., #165 );
#111 = FACE_BOUND( '', #166, .T. );
#112 = FACE_BOUND( '', #167, .T. );
#113 = FACE_BOUND( '', #168, .T. );
#114 = FACE_OUTER_BOUND( '', #169, .T. );
#115 = PLANE( '', #170 );
#116 = SURFACE_STYLE_USAGE( .BOTH., #171 );
#117 = FACE_BOUND( '', #172, .T. );
#118 = FACE_OUTER_BOUND( '', #173, .T. );
#119 = CONICAL_SURFACE( '', #174, 5.75000000000000, 0.785398163400000 );
#120 = SURFACE_STYLE_USAGE( .BOTH., #175 );
#121 = FACE_BOUND( '', #176, .T. );
#122 = FACE_OUTER_BOUND( '', #177, .T. );
#123 = CONICAL_SURFACE( '', #178, 5.75000000000000, 0.785398163400000 );
#124 = PRODUCT_CONTEXT( '', #22, 'mechanical' );
#125 = PRODUCT_DEFINITION_FORMATION_WITH_SPECIFIED_SOURCE( ' ', 'NONE', #59, .NOT_KNOWN. );
#126 = CLOSED_SHELL( '', ( #36, #38, #52, #54, #40, #46, #50, #42, #56, #48, #58, #44 ) );
#127 = CARTESIAN_POINT( '', ( 0.000000000000000, 0.000000000000000, 0.000000000000000 ) );
#128 = DIRECTION( '', ( 0.000000000000000, 0.000000000000000, 1.00000000000000 ) );
#129 = DIRECTION( '', ( 1.00000000000000, 0.000000000000000, 0.000000000000000 ) );
#130 =  ( LENGTH_UNIT(  )NAMED_UNIT( #68 )SI_UNIT( .MILLI., .METRE. ) );
#131 = SURFACE_SIDE_STYLE( '', ( #180 ) );
#132 = EDGE_LOOP( '', ( #181 ) );
#133 = EDGE_LOOP( '', ( #182 ) );
#134 = EDGE_LOOP( '', ( #183 ) );
#135 = EDGE_LOOP( '', ( #184, #185, #186, #187 ) );
#136 = AXIS2_PLACEMENT_3D( '', #188, #189, #190 );
#137 = SURFACE_SIDE_STYLE( '', ( #191 ) );
#138 = EDGE_LOOP( '', ( #192 ) );
#139 = EDGE_LOOP( '', ( #193 ) );
#140 = AXIS2_PLACEMENT_3D( '', #194, #195, #196 );
#141 = SURFACE_SIDE_STYLE( '', ( #197 ) );
#142 = EDGE_LOOP( '', ( #198, #199, #200, #201 ) );
#143 = AXIS2_PLACEMENT_3D( '', #202, #203, #204 );
#144 = SURFACE_SIDE_STYLE( '', ( #205 ) );
#145 = EDGE_LOOP( '', ( #206, #207, #208, #209 ) );
#146 = AXIS2_PLACEMENT_3D( '', #210, #211, #212 );
#147 = SURFACE_SIDE_STYLE( '', ( #213 ) );
#148 = EDGE_LOOP( '', ( #214 ) );
#149 = EDGE_LOOP( '', ( #215 ) );
#150 = AXIS2_PLACEMENT_3D( '', #216, #217, #218 );
#151 = SURFACE_SIDE_STYLE( '', ( #219 ) );
#152 = EDGE_LOOP( '', ( #220, #221, #222, #223 ) );
#153 = AXIS2_PLACEMENT_3D( '', #224, #225, #226 );
#154 = SURFACE_SIDE_STYLE( '', ( #227 ) );
#155 = EDGE_LOOP( '', ( #228 ) );
#156 = EDGE_LOOP( '', ( #229 ) );
#157 = AXIS2_PLACEMENT_3D( '', #230, #231, #232 );
#158 = SURFACE_SIDE_STYLE( '', ( #233 ) );
#159 = EDGE_LOOP( '', ( #234, #235, #236, #237 ) );
#160 = AXIS2_PLACEMENT_3D( '', #238, #239, #240 );
#161 = SURFACE_SIDE_STYLE( '', ( #241 ) );
#162 = EDGE_LOOP( '', ( #242 ) );
#163 = EDGE_LOOP( '', ( #243 ) );
#164 = AXIS2_PLACEMENT_3D( '', #244, #245, #246 );
#165 = SURFACE_SIDE_STYLE( '', ( #247 ) );
#166 = EDGE_LOOP( '', ( #248 ) );
#167 = EDGE_LOOP( '', ( #249 ) );
#168 = EDGE_LOOP( '', ( #250 ) );
#169 = EDGE_LOOP( '', ( #251, #252, #253, #254 ) );
#170 = AXIS2_PLACEMENT_3D( '', #255, #256, #257 );
#171 = SURFACE_SIDE_STYLE( '', ( #258 ) );
#172 = EDGE_LOOP( '', ( #259 ) );
#173 = EDGE_LOOP( '', ( #260 ) );
#174 = AXIS2_PLACEMENT_3D( '', #261, #262, #263 );
#175 = SURFACE_SIDE_STYLE( '', ( #264 ) );
#176 = EDGE_LOOP( '', ( #265 ) );
#177 = EDGE_LOOP( '', ( #266 ) );
#178 = AXIS2_PLACEMENT_3D( '', #267, #268, #269 );
#180 = SURFACE_STYLE_FILL_AREA( #270 );
#181 = ORIENTED_EDGE( '', *, *, #271, .F. );
#182 = ORIENTED_EDGE( '', *, *, #272, .F. );
#183 = ORIENTED_EDGE( '', *, *, #273, .F. );
#184 = ORIENTED_EDGE( '', *, *, #274, .F. );
#185 = ORIENTED_EDGE( '', *, *, #275, .F. );
#186 = ORIENTED_EDGE( '', *, *, #276, .F. );
#187 = ORIENTED_EDGE( '', *, *, #277, .F. );
#188 = CARTESIAN_POINT( '', ( 0.000000000000000, 0.000000000000000, 0.000000000000000 ) );
#189 = DIRECTION( '', ( 0.000000000000000, 0.000000000000000, 1.00000000000000 ) );
#190 = DIRECTION( '', ( 1.00000000000000, 0.000000000000000, -0.000000000000000 ) );
#191 = SURFACE_STYLE_FILL_AREA( #278 );
#192 = ORIENTED_EDGE( '', *, *, #273, .T. );
#193 = ORIENTED_EDGE( '', *, *, #279, .F. );
#194 = CARTESIAN_POINT( '', ( 10.0000000000000, 20.0000000000000, 0.000000000000000 ) );
#195 = DIRECTION( '', ( 0.000000000000000, -0.000000000000000, 1.00000000000000 ) );
#196 = DIRECTION( '', ( -1.00000000000000, 0.000000000000000, 0.000000000000000 ) );
#197 = SURFACE_STYLE_FILL_AREA( #280 );
#198 = ORIENTED_EDGE( '', *, *, #275, .T. );
#199 = ORIENTED_EDGE( '', *, *, #281, .F. );
#200 = ORIENTED_EDGE( '', *, *, #282, .F. );
#201 = ORIENTED_EDGE( '', *, *, #283, .T. );
#202 = CARTESIAN_POINT( '', ( 1010.00000000000, 0.000000000000000, 6.00000000000000 ) );
#203 = DIRECTION( '', ( -1.00000000000000, 0.000000000000000, 0.000000000000000 ) );
#204 = DIRECTION( '', ( 0.000000000000000, 0.000000000000000, 1.00000000000000 ) );
#205 = SURFACE_STYLE_FILL_AREA( #284 );
#206 = ORIENTED_EDGE( '', *, *, #276, .T. );
#207 = ORIENTED_EDGE( '', *, *, #283, .F. );
#208 = ORIENTED_EDGE( '', *, *, #285, .F. );
#209 = ORIENTED_EDGE( '', *, *, #286, .T. );
#210 = CARTESIAN_POINT( '', ( 0.000000000000000, 0.000000000000000, 6.00000000000000 ) );
#211 = DIRECTION( '', ( 0.000000000000000, 1.00000000000000, 0.000000000000000 ) );
#212 = DIRECTION( '', ( 0.000000000000000, -0.000000000000000, 1.00000000000000 ) );
#213 = SURFACE_STYLE_FILL_AREA( #287 );
#214 = ORIENTED_EDGE( '', *, *, #271, .T. );
#215 = ORIENTED_EDGE( '', *, *, #288, .F. );
#216 = CARTESIAN_POINT( '', ( 505.000000000000, 20.0000000000000, 0.000000000000000 ) );
#217 = DIRECTION( '', ( 0.000000000000000, -0.000000000000000, 1.00000000000000 ) );
#218 = DIRECTION( '', ( -1.00000000000000, 0.000000000000000, 0.000000000000000 ) );
#219 = SURFACE_STYLE_FILL_AREA( #289 );
#220 = ORIENTED_EDGE( '', *, *, #274, .T. );
#221 = ORIENTED_EDGE( '', *, *, #290, .F. );
#222 = ORIENTED_EDGE( '', *, *, #291, .F. );
#223 = ORIENTED_EDGE( '', *, *, #281, .T. );
#224 = CARTESIAN_POINT( '', ( 1010.00000000000, 30.0000000000000, 6.00000000000000 ) );
#225 = DIRECTION( '', ( 0.000000000000000, -1.00000000000000, 0.000000000000000 ) );
#226 = DIRECTION( '', ( 0.000000000000000, 0.000000000000000, -1.00000000000000 ) );
#227 = SURFACE_STYLE_FILL_AREA( #292 );
#228 = ORIENTED_EDGE( '', *, *, #272, .T. );
#229 = ORIENTED_EDGE( '', *, *, #293, .F. );
#230 = CARTESIAN_POINT( '', ( 1000.00000000000, 20.0000000000000, 0.000000000000000 ) );
#231 = DIRECTION( '', ( 0.000000000000000, -0.000000000000000, 1.00000000000000 ) );
#232 = DIRECTION( '', ( -1.00000000000000, 0.000000000000000, 0.000000000000000 ) );
#233 = SURFACE_STYLE_FILL_AREA( #294 );
#234 = ORIENTED_EDGE( '', *, *, #277, .T. );
#235 = ORIENTED_EDGE( '', *, *, #286, .F. );
#236 = ORIENTED_EDGE( '', *, *, #295, .F. );
#237 = ORIENTED_EDGE( '', *, *, #290, .T. );
#238 = CARTESIAN_POINT( '', ( 0.000000000000000, 30.0000000000000, 6.00000000000000 ) );
#239 = DIRECTION( '', ( 1.00000000000000, 0.000000000000000, -0.000000000000000 ) );
#240 = DIRECTION( '', ( -0.000000000000000, 0.000000000000000, -1.00000000000000 ) );
#241 = SURFACE_STYLE_FILL_AREA( #296 );
#242 = ORIENTED_EDGE( '', *, *, #279, .T. );
#243 = ORIENTED_EDGE( '', *, *, #297, .F. );
#244 = CARTESIAN_POINT( '', ( 10.0000000000000, 20.0000000000000, 6.00000000000000 ) );
#245 = DIRECTION( '', ( 0.000000000000000, -0.000000000000000, 1.00000000000000 ) );
#246 = DIRECTION( '', ( 1.00000000000000, 0.000000000000000, -0.000000000000000 ) );
#247 = SURFACE_STYLE_FILL_AREA( #298 );
#248 = ORIENTED_EDGE( '', *, *, #299, .T. );
#249 = ORIENTED_EDGE( '', *, *, #300, .T. );
#250 = ORIENTED_EDGE( '', *, *, #297, .T. );
#251 = ORIENTED_EDGE( '', *, *, #291, .T. );
#252 = ORIENTED_EDGE( '', *, *, #295, .T. );
#253 = ORIENTED_EDGE( '', *, *, #285, .T. );
#254 = ORIENTED_EDGE( '', *, *, #282, .T. );
#255 = CARTESIAN_POINT( '', ( 0.000000000000000, 0.000000000000000, 6.00000000000000 ) );
#256 = DIRECTION( '', ( 0.000000000000000, 0.000000000000000, 1.00000000000000 ) );
#257 = DIRECTION( '', ( 1.00000000000000, 0.000000000000000, -0.000000000000000 ) );
#258 = SURFACE_STYLE_FILL_AREA( #301 );
#259 = ORIENTED_EDGE( '', *, *, #293, .T. );
#260 = ORIENTED_EDGE( '', *, *, #300, .F. );
#261 = CARTESIAN_POINT( '', ( 1000.00000000000, 20.0000000000000, 6.00000000000000 ) );
#262 = DIRECTION( '', ( 0.000000000000000, -0.000000000000000, 1.00000000000000 ) );
#263 = DIRECTION( '', ( 1.00000000000000, 0.000000000000000, -0.000000000000000 ) );
#264 = SURFACE_STYLE_FILL_AREA( #302 );
#265 = ORIENTED_EDGE( '', *, *, #288, .T. );
#266 = ORIENTED_EDGE( '', *, *, #299, .F. );
#267 = CARTESIAN_POINT( '', ( 505.000000000000, 20.0000000000000, 6.00000000000000 ) );
#268 = DIRECTION( '', ( 0.000000000000000, -0.000000000000000, 1.00000000000000 ) );
#269 = DIRECTION( '', ( 1.00000000000000, 0.000000000000000, -0.000000000000000 ) );
#270 = FILL_AREA_STYLE( '', ( #303 ) );
#271 = EDGE_CURVE( '', #304, #304, #305, .T. );
#272 = EDGE_CURVE( '', #306, #306, #307, .T. );
#273 = EDGE_CURVE( '', #308, #308, #309, .T. );
#274 = EDGE_CURVE( '', #310, #311, #312, .T. );
#275 = EDGE_CURVE( '', #313, #310, #314, .T. );
#276 = EDGE_CURVE( '', #315, #313, #316, .T. );
#277 = EDGE_CURVE( '', #311, #315, #317, .T. );
#278 = FILL_AREA_STYLE( '', ( #318 ) );
#279 = EDGE_CURVE( '', #319, #319, #320, .T. );
#280 = FILL_AREA_STYLE( '', ( #321 ) );
#281 = EDGE_CURVE( '', #322, #310, #323, .T. );
#282 = EDGE_CURVE( '', #324, #322, #325, .T. );
#283 = EDGE_CURVE( '', #324, #313, #326, .T. );
#284 = FILL_AREA_STYLE( '', ( #327 ) );
#285 = EDGE_CURVE( '', #328, #324, #329, .T. );
#286 = EDGE_CURVE( '', #328, #315, #330, .T. );
#287 = FILL_AREA_STYLE( '', ( #331 ) );
#288 = EDGE_CURVE( '', #332, #332, #333, .T. );
#289 = FILL_AREA_STYLE( '', ( #334 ) );
#290 = EDGE_CURVE( '', #335, #311, #336, .T. );
#291 = EDGE_CURVE( '', #322, #335, #337, .T. );
#292 = FILL_AREA_STYLE( '', ( #338 ) );
#293 = EDGE_CURVE( '', #339, #339, #340, .T. );
#294 = FILL_AREA_STYLE( '', ( #341 ) );
#295 = EDGE_CURVE( '', #335, #328, #342, .T. );
#296 = FILL_AREA_STYLE( '', ( #343 ) );
#297 = EDGE_CURVE( '', #344, #344, #345, .T. );
#298 = FILL_AREA_STYLE( '', ( #346 ) );
#299 = EDGE_CURVE( '', #347, #347, #348, .T. );
#300 = EDGE_CURVE( '', #349, #349, #350, .T. );
#301 = FILL_AREA_STYLE( '', ( #351 ) );
#302 = FILL_AREA_STYLE( '', ( #352 ) );
#303 = FILL_AREA_STYLE_COLOUR( '', #353 );
#304 = VERTEX_POINT( '', #354 );
#305 = CIRCLE( '', #355, 2.75000000000000 );
#306 = VERTEX_POINT( '', #356 );
#307 = CIRCLE( '', #357, 2.75000000000000 );
#308 = VERTEX_POINT( '', #358 );
#309 = CIRCLE( '', #359, 2.75000000000000 );
#310 = VERTEX_POINT( '', #360 );
#311 = VERTEX_POINT( '', #361 );
#312 = LINE( '', #362, #363 );
#313 = VERTEX_POINT( '', #364 );
#314 = LINE( '', #365, #366 );
#315 = VERTEX_POINT( '', #367 );
#316 = LINE( '', #368, #369 );
#317 = LINE( '', #370, #371 );
#318 = FILL_AREA_STYLE_COLOUR( '', #372 );
#319 = VERTEX_POINT( '', #373 );
#320 = CIRCLE( '', #374, 2.75000000000000 );
#321 = FILL_AREA_STYLE_COLOUR( '', #375 );
#322 = VERTEX_POINT( '', #376 );
#323 = LINE( '', #377, #378 );
#324 = VERTEX_POINT( '', #379 );
#325 = LINE( '', #380, #381 );
#326 = LINE( '', #382, #383 );
#327 = FILL_AREA_STYLE_COLOUR( '', #384 );
#328 = VERTEX_POINT( '', #385 );
#329 = LINE( '', #386, #387 );
#330 = LINE( '', #388, #389 );
#331 = FILL_AREA_STYLE_COLOUR( '', #390 );
#332 = VERTEX_POINT( '', #391 );
#333 = CIRCLE( '', #392, 2.75000000000000 );
#334 = FILL_AREA_STYLE_COLOUR( '', #393 );
#335 = VERTEX_POINT( '', #394 );
#336 = LINE( '', #395, #396 );
#337 = LINE( '', #397, #398 );
#338 = FILL_AREA_STYLE_COLOUR( '', #399 );
#339 = VERTEX_POINT( '', #400 );
#340 = CIRCLE( '', #401, 2.75000000000000 );
#341 = FILL_AREA_STYLE_COLOUR( '', #402 );
#342 = LINE( '', #403, #404 );
#343 = FILL_AREA_STYLE_COLOUR( '', #405 );
#344 = VERTEX_POINT( '', #406 );
#345 = CIRCLE( '', #407, 5.75000000000000 );
#346 = FILL_AREA_STYLE_COLOUR( '', #408 );
#347 = VERTEX_POINT( '', #409 );
#348 = CIRCLE( '', #410, 5.75000000000000 );
#349 = VERTEX_POINT( '', #411 );
#350 = CIRCLE( '', #412, 5.75000000000000 );
#351 = FILL_AREA_STYLE_COLOUR( '', #413 );
#352 = FILL_AREA_STYLE_COLOUR( '', #414 );
#353 = COLOUR_RGB( '', 0.689999997600000, 0.689999997600000, 0.689999997600000 );
#354 = CARTESIAN_POINT( '', ( 502.250000000000, 20.0000000000000, 0.000000000000000 ) );
#355 = AXIS2_PLACEMENT_3D( '', #415, #416, #417 );
#356 = CARTESIAN_POINT( '', ( 997.250000000000, 20.0000000000000, 0.000000000000000 ) );
#357 = AXIS2_PLACEMENT_3D( '', #418, #419, #420 );
#358 = CARTESIAN_POINT( '', ( 7.25000000000000, 20.0000000000000, 0.000000000000000 ) );
#359 = AXIS2_PLACEMENT_3D( '', #421, #422, #423 );
#360 = CARTESIAN_POINT( '', ( 1010.00000000000, 30.0000000000000, 0.000000000000000 ) );
#361 = CARTESIAN_POINT( '', ( 0.000000000000000, 30.0000000000000, 0.000000000000000 ) );
#362 = CARTESIAN_POINT( '', ( 1010.00000000000, 30.0000000000000, 0.000000000000000 ) );
#363 = VECTOR( '', #424, 1000.00000000000 );
#364 = CARTESIAN_POINT( '', ( 1010.00000000000, 0.000000000000000, 0.000000000000000 ) );
#365 = CARTESIAN_POINT( '', ( 1010.00000000000, 0.000000000000000, 0.000000000000000 ) );
#366 = VECTOR( '', #425, 1000.00000000000 );
#367 = CARTESIAN_POINT( '', ( 0.000000000000000, 0.000000000000000, 0.000000000000000 ) );
#368 = CARTESIAN_POINT( '', ( 0.000000000000000, 0.000000000000000, 0.000000000000000 ) );
#369 = VECTOR( '', #426, 1000.00000000000 );
#370 = CARTESIAN_POINT( '', ( 0.000000000000000, 30.0000000000000, 0.000000000000000 ) );
#371 = VECTOR( '', #427, 1000.00000000000 );
#372 = COLOUR_RGB( '', 0.689999997600000, 0.689999997600000, 0.689999997600000 );
#373 = CARTESIAN_POINT( '', ( 7.25000000000000, 20.0000000000000, 3.00000000000000 ) );
#374 = AXIS2_PLACEMENT_3D( '', #428, #429, #430 );
#375 = COLOUR_RGB( '', 0.689999997600000, 0.689999997600000, 0.689999997600000 );
#376 = CARTESIAN_POINT( '', ( 1010.00000000000, 30.0000000000000, 6.00000000000000 ) );
#377 = CARTESIAN_POINT( '', ( 1010.00000000000, 30.0000000000000, 6.00000000000000 ) );
#378 = VECTOR( '', #431, 1000.00000000000 );
#379 = CARTESIAN_POINT( '', ( 1010.00000000000, 0.000000000000000, 6.00000000000000 ) );
#380 = CARTESIAN_POINT( '', ( 1010.00000000000, 0.000000000000000, 6.00000000000000 ) );
#381 = VECTOR( '', #432, 1000.00000000000 );
#382 = CARTESIAN_POINT( '', ( 1010.00000000000, 0.000000000000000, 6.00000000000000 ) );
#383 = VECTOR( '', #433, 1000.00000000000 );
#384 = COLOUR_RGB( '', 0.689999997600000, 0.689999997600000, 0.689999997600000 );
#385 = CARTESIAN_POINT( '', ( 0.000000000000000, 0.000000000000000, 6.00000000000000 ) );
#386 = CARTESIAN_POINT( '', ( 0.000000000000000, 0.000000000000000, 6.00000000000000 ) );
#387 = VECTOR( '', #434, 1000.00000000000 );
#388 = CARTESIAN_POINT( '', ( 0.000000000000000, 0.000000000000000, 6.00000000000000 ) );
#389 = VECTOR( '', #435, 1000.00000000000 );
#390 = COLOUR_RGB( '', 0.689999997600000, 0.689999997600000, 0.689999997600000 );
#391 = CARTESIAN_POINT( '', ( 502.250000000000, 20.0000000000000, 3.00000000000000 ) );
#392 = AXIS2_PLACEMENT_3D( '', #436, #437, #438 );
#393 = COLOUR_RGB( '', 0.689999997600000, 0.689999997600000, 0.689999997600000 );
#394 = CARTESIAN_POINT( '', ( 0.000000000000000, 30.0000000000000, 6.00000000000000 ) );
#395 = CARTESIAN_POINT( '', ( 0.000000000000000, 30.0000000000000, 6.00000000000000 ) );
#396 = VECTOR( '', #439, 1000.00000000000 );
#397 = CARTESIAN_POINT( '', ( 1010.00000000000, 30.0000000000000, 6.00000000000000 ) );
#398 = VECTOR( '', #440, 1000.00000000000 );
#399 = COLOUR_RGB( '', 0.689999997600000, 0.689999997600000, 0.689999997600000 );
#400 = CARTESIAN_POINT( '', ( 997.250000000000, 20.0000000000000, 3.00000000000000 ) );
#401 = AXIS2_PLACEMENT_3D( '', #441, #442, #443 );
#402 = COLOUR_RGB( '', 0.689999997600000, 0.689999997600000, 0.689999997600000 );
#403 = CARTESIAN_POINT( '', ( 0.000000000000000, 30.0000000000000, 6.00000000000000 ) );
#404 = VECTOR( '', #444, 1000.00000000000 );
#405 = COLOUR_RGB( '', 0.689999997600000, 0.689999997600000, 0.689999997600000 );
#406 = CARTESIAN_POINT( '', ( 4.25000000000000, 20.0000000000000, 6.00000000000000 ) );
#407 = AXIS2_PLACEMENT_3D( '', #445, #446, #447 );
#408 = COLOUR_RGB( '', 0.689999997600000, 0.689999997600000, 0.689999997600000 );
#409 = CARTESIAN_POINT( '', ( 499.250000000000, 20.0000000000000, 6.00000000000000 ) );
#410 = AXIS2_PLACEMENT_3D( '', #448, #449, #450 );
#411 = CARTESIAN_POINT( '', ( 994.250000000000, 20.0000000000000, 6.00000000000000 ) );
#412 = AXIS2_PLACEMENT_3D( '', #451, #452, #453 );
#413 = COLOUR_RGB( '', 0.689999997600000, 0.689999997600000, 0.689999997600000 );
#414 = COLOUR_RGB( '', 0.689999997600000, 0.689999997600000, 0.689999997600000 );
#415 = CARTESIAN_POINT( '', ( 505.000000000000, 20.0000000000000, 0.000000000000000 ) );
#416 = DIRECTION( '', ( -0.000000000000000, 0.000000000000000, -1.00000000000000 ) );
#417 = DIRECTION( '', ( -1.00000000000000, 0.000000000000000, 0.000000000000000 ) );
#418 = CARTESIAN_POINT( '', ( 1000.00000000000, 20.0000000000000, 0.000000000000000 ) );
#419 = DIRECTION( '', ( -0.000000000000000, 0.000000000000000, -1.00000000000000 ) );
#420 = DIRECTION( '', ( -1.00000000000000, 0.000000000000000, 0.000000000000000 ) );
#421 = CARTESIAN_POINT( '', ( 10.0000000000000, 20.0000000000000, 0.000000000000000 ) );
#422 = DIRECTION( '', ( -0.000000000000000, 0.000000000000000, -1.00000000000000 ) );
#423 = DIRECTION( '', ( -1.00000000000000, 0.000000000000000, 0.000000000000000 ) );
#424 = DIRECTION( '', ( -1.00000000000000, 0.000000000000000, 0.000000000000000 ) );
#425 = DIRECTION( '', ( 0.000000000000000, 1.00000000000000, 0.000000000000000 ) );
#426 = DIRECTION( '', ( 1.00000000000000, 0.000000000000000, 0.000000000000000 ) );
#427 = DIRECTION( '', ( 0.000000000000000, -1.00000000000000, 0.000000000000000 ) );
#428 = CARTESIAN_POINT( '', ( 10.0000000000000, 20.0000000000000, 3.00000000000000 ) );
#429 = DIRECTION( '', ( -0.000000000000000, 0.000000000000000, -1.00000000000000 ) );
#430 = DIRECTION( '', ( -1.00000000000000, 0.000000000000000, 0.000000000000000 ) );
#431 = DIRECTION( '', ( -0.000000000000000, -0.000000000000000, -1.00000000000000 ) );
#432 = DIRECTION( '', ( 0.000000000000000, 1.00000000000000, 0.000000000000000 ) );
#433 = DIRECTION( '', ( -0.000000000000000, -0.000000000000000, -1.00000000000000 ) );
#434 = DIRECTION( '', ( 1.00000000000000, 0.000000000000000, 0.000000000000000 ) );
#435 = DIRECTION( '', ( -0.000000000000000, -0.000000000000000, -1.00000000000000 ) );
#436 = CARTESIAN_POINT( '', ( 505.000000000000, 20.0000000000000, 3.00000000000000 ) );
#437 = DIRECTION( '', ( -0.000000000000000, 0.000000000000000, -1.00000000000000 ) );
#438 = DIRECTION( '', ( -1.00000000000000, 0.000000000000000, 0.000000000000000 ) );
#439 = DIRECTION( '', ( -0.000000000000000, -0.000000000000000, -1.00000000000000 ) );
#440 = DIRECTION( '', ( -1.00000000000000, 0.000000000000000, 0.000000000000000 ) );
#441 = CARTESIAN_POINT( '', ( 1000.00000000000, 20.0000000000000, 3.00000000000000 ) );
#442 = DIRECTION( '', ( -0.000000000000000, 0.000000000000000, -1.00000000000000 ) );
#443 = DIRECTION( '', ( -1.00000000000000, 0.000000000000000, 0.000000000000000 ) );
#444 = DIRECTION( '', ( 0.000000000000000, -1.00000000000000, 0.000000000000000 ) );
#445 = CARTESIAN_POINT( '', ( 10.0000000000000, 20.0000000000000, 6.00000000000000 ) );
#446 = DIRECTION( '', ( -0.000000000000000, 0.000000000000000, -1.00000000000000 ) );
#447 = DIRECTION( '', ( -1.00000000000000, 0.000000000000000, 0.000000000000000 ) );
#448 = CARTESIAN_POINT( '', ( 505.000000000000, 20.0000000000000, 6.00000000000000 ) );
#449 = DIRECTION( '', ( -0.000000000000000, 0.000000000000000, -1.00000000000000 ) );
#450 = DIRECTION( '', ( -1.00000000000000, 0.000000000000000, 0.000000000000000 ) );
#451 = CARTESIAN_POINT( '', ( 1000.00000000000, 20.0000000000000, 6.00000000000000 ) );
#452 = DIRECTION( '', ( -0.000000000000000, 0.000000000000000, -1.00000000000000 ) );
#453 = DIRECTION( '', ( -1.00000000000000, 0.000000000000000, 0.000000000000000 ) );
ENDSEC;
END-ISO-10303-21;
