ISO-10303-21;
HEADER;
FILE_DESCRIPTION( ( 'STEP AP214' ), '1' );
FILE_NAME( '//goodhand-server/Shared Folders/GoodHand Data/Kipp CAD/K0282/K0282.108C_0_.stp', '2020-11-27T12:43:04', ( '' ), ( '' ), ' ', 'PARTsolutions', ' ' );
FILE_SCHEMA( ( 'AUTOMOTIVE_DESIGN { 1 0 10303 214 1 1 1 1 }' ) );
ENDSEC;
DATA;
#1 = MECHANICAL_DESIGN_GEOMETRIC_PRESENTATION_REPRESENTATION( ' ', ( #10, #11, #12, #13, #14, #15, #16, #17, #18, #19, #20, #21, #22, #23, #24 ), #6 );
#2 = PRODUCT_DEFINITION_CONTEXT( '', #25, 'design' );
#3 = APPLICATION_PROTOCOL_DEFINITION( 'international standard', 'automotive_design', 2001, #25 );
#4 = PRODUCT_CATEGORY_RELATIONSHIP( 'NONE', 'NONE', #26, #27 );
#5 = SHAPE_DEFINITION_REPRESENTATION( #28, #29 );
#6 =  ( GEOMETRIC_REPRESENTATION_CONTEXT( 3 )GLOBAL_UNCERTAINTY_ASSIGNED_CONTEXT( ( #32 ) )GLOBAL_UNIT_ASSIGNED_CONTEXT( ( #34, #35, #36 ) )REPRESENTATION_CONTEXT( 'NONE', 'WORKSPACE' ) );
#10 = STYLED_ITEM( '', ( #38 ), #39 );
#11 = STYLED_ITEM( '', ( #40 ), #41 );
#12 = STYLED_ITEM( '', ( #42 ), #43 );
#13 = STYLED_ITEM( '', ( #44 ), #45 );
#14 = STYLED_ITEM( '', ( #46 ), #47 );
#15 = STYLED_ITEM( '', ( #48 ), #49 );
#16 = STYLED_ITEM( '', ( #50 ), #51 );
#17 = STYLED_ITEM( '', ( #52 ), #53 );
#18 = STYLED_ITEM( '', ( #54 ), #55 );
#19 = STYLED_ITEM( '', ( #56 ), #57 );
#20 = STYLED_ITEM( '', ( #58 ), #59 );
#21 = STYLED_ITEM( '', ( #60 ), #61 );
#22 = STYLED_ITEM( '', ( #62 ), #63 );
#23 = STYLED_ITEM( '', ( #64 ), #65 );
#24 = STYLED_ITEM( '', ( #66 ), #67 );
#25 = APPLICATION_CONTEXT( 'core data for automotive mechanical design processes' );
#26 = PRODUCT_CATEGORY( 'part', 'NONE' );
#27 = PRODUCT_RELATED_PRODUCT_CATEGORY( 'detail', ' ', ( #68 ) );
#28 = PRODUCT_DEFINITION_SHAPE( 'NONE', 'NONE', #69 );
#29 = ADVANCED_BREP_SHAPE_REPRESENTATION( '_K0282.108C(0)', ( #70, #71 ), #6 );
#32 = UNCERTAINTY_MEASURE_WITH_UNIT( LENGTH_MEASURE( 0.00100000000000000 ), #34, '', '' );
#34 =  ( CONVERSION_BASED_UNIT( 'MILLIMETRE', #74 )LENGTH_UNIT(  )NAMED_UNIT( #77 ) );
#35 =  ( NAMED_UNIT( #79 )PLANE_ANGLE_UNIT(  )SI_UNIT( $, .RADIAN. ) );
#36 =  ( NAMED_UNIT( #79 )SI_UNIT( $, .STERADIAN. )SOLID_ANGLE_UNIT(  ) );
#38 = PRESENTATION_STYLE_ASSIGNMENT( ( #85 ) );
#39 = ADVANCED_FACE( '', ( #86 ), #87, .T. );
#40 = PRESENTATION_STYLE_ASSIGNMENT( ( #88 ) );
#41 = ADVANCED_FACE( '', ( #89, #90 ), #91, .T. );
#42 = PRESENTATION_STYLE_ASSIGNMENT( ( #92 ) );
#43 = ADVANCED_FACE( '', ( #93, #94 ), #95, .T. );
#44 = PRESENTATION_STYLE_ASSIGNMENT( ( #96 ) );
#45 = ADVANCED_FACE( '', ( #97, #98 ), #99, .F. );
#46 = PRESENTATION_STYLE_ASSIGNMENT( ( #100 ) );
#47 = ADVANCED_FACE( '', ( #101 ), #102, .F. );
#48 = PRESENTATION_STYLE_ASSIGNMENT( ( #103 ) );
#49 = ADVANCED_FACE( '', ( #104, #105 ), #106, .T. );
#50 = PRESENTATION_STYLE_ASSIGNMENT( ( #107 ) );
#51 = ADVANCED_FACE( '', ( #108, #109 ), #110, .T. );
#52 = PRESENTATION_STYLE_ASSIGNMENT( ( #111 ) );
#53 = ADVANCED_FACE( '', ( #112 ), #113, .T. );
#54 = PRESENTATION_STYLE_ASSIGNMENT( ( #114 ) );
#55 = ADVANCED_FACE( '', ( #115 ), #116, .T. );
#56 = PRESENTATION_STYLE_ASSIGNMENT( ( #117 ) );
#57 = ADVANCED_FACE( '', ( #118, #119 ), #120, .T. );
#58 = PRESENTATION_STYLE_ASSIGNMENT( ( #121 ) );
#59 = ADVANCED_FACE( '', ( #122, #123 ), #124, .T. );
#60 = PRESENTATION_STYLE_ASSIGNMENT( ( #125 ) );
#61 = ADVANCED_FACE( '', ( #126 ), #127, .T. );
#62 = PRESENTATION_STYLE_ASSIGNMENT( ( #128 ) );
#63 = ADVANCED_FACE( '', ( #129, #130 ), #131, .T. );
#64 = PRESENTATION_STYLE_ASSIGNMENT( ( #132 ) );
#65 = ADVANCED_FACE( '', ( #133 ), #134, .F. );
#66 = PRESENTATION_STYLE_ASSIGNMENT( ( #135 ) );
#67 = ADVANCED_FACE( '', ( #136, #137 ), #138, .F. );
#68 = PRODUCT( '_K0282.108C(0)', '_K0282.108C(0)', 'PART-_K0282.108C(0)-DESC', ( #139 ) );
#69 = PRODUCT_DEFINITION( 'NONE', 'NONE', #140, #2 );
#70 = MANIFOLD_SOLID_BREP( '_K0282.108C(0)', #141 );
#71 = AXIS2_PLACEMENT_3D( '', #142, #143, #144 );
#74 = LENGTH_MEASURE_WITH_UNIT( LENGTH_MEASURE( 1.00000000000000 ), #145 );
#77 = DIMENSIONAL_EXPONENTS( 1.00000000000000, 0.000000000000000, 0.000000000000000, 0.000000000000000, 0.000000000000000, 0.000000000000000, 0.000000000000000 );
#79 = DIMENSIONAL_EXPONENTS( 0.000000000000000, 0.000000000000000, 0.000000000000000, 0.000000000000000, 0.000000000000000, 0.000000000000000, 0.000000000000000 );
#85 = SURFACE_STYLE_USAGE( .BOTH., #146 );
#86 = FACE_OUTER_BOUND( '', #147, .T. );
#87 = PLANE( '', #148 );
#88 = SURFACE_STYLE_USAGE( .BOTH., #149 );
#89 = FACE_OUTER_BOUND( '', #150, .T. );
#90 = FACE_OUTER_BOUND( '', #151, .T. );
#91 = SPHERICAL_SURFACE( '', #152, 5.00000000000000 );
#92 = SURFACE_STYLE_USAGE( .BOTH., #153 );
#93 = FACE_OUTER_BOUND( '', #154, .T. );
#94 = FACE_BOUND( '', #155, .T. );
#95 = CONICAL_SURFACE( '', #156, 3.23300000000000, 0.785398163400000 );
#96 = SURFACE_STYLE_USAGE( .BOTH., #157 );
#97 = FACE_BOUND( '', #158, .T. );
#98 = FACE_OUTER_BOUND( '', #159, .T. );
#99 = PLANE( '', #160 );
#100 = SURFACE_STYLE_USAGE( .BOTH., #161 );
#101 = FACE_OUTER_BOUND( '', #162, .T. );
#102 = PLANE( '', #163 );
#103 = SURFACE_STYLE_USAGE( .BOTH., #164 );
#104 = FACE_OUTER_BOUND( '', #165, .T. );
#105 = FACE_OUTER_BOUND( '', #166, .T. );
#106 = CYLINDRICAL_SURFACE( '', #167, 6.50000000000000 );
#107 = SURFACE_STYLE_USAGE( .BOTH., #168 );
#108 = FACE_OUTER_BOUND( '', #169, .T. );
#109 = FACE_OUTER_BOUND( '', #170, .T. );
#110 = CYLINDRICAL_SURFACE( '', #171, 4.00000000000000 );
#111 = SURFACE_STYLE_USAGE( .BOTH., #172 );
#112 = FACE_OUTER_BOUND( '', #173, .T. );
#113 = PLANE( '', #174 );
#114 = SURFACE_STYLE_USAGE( .BOTH., #175 );
#115 = FACE_OUTER_BOUND( '', #176, .T. );
#116 = PLANE( '', #177 );
#117 = SURFACE_STYLE_USAGE( .BOTH., #178 );
#118 = FACE_OUTER_BOUND( '', #179, .T. );
#119 = FACE_OUTER_BOUND( '', #180, .T. );
#120 = CYLINDRICAL_SURFACE( '', #181, 3.23300000000000 );
#121 = SURFACE_STYLE_USAGE( .BOTH., #182 );
#122 = FACE_OUTER_BOUND( '', #183, .T. );
#123 = FACE_BOUND( '', #184, .T. );
#124 = CONICAL_SURFACE( '', #185, 5.12948836890000, 0.537380612700000 );
#125 = SURFACE_STYLE_USAGE( .BOTH., #186 );
#126 = FACE_OUTER_BOUND( '', #187, .T. );
#127 = PLANE( '', #188 );
#128 = SURFACE_STYLE_USAGE( .BOTH., #189 );
#129 = FACE_BOUND( '', #190, .T. );
#130 = FACE_OUTER_BOUND( '', #191, .T. );
#131 = CONICAL_SURFACE( '', #192, 4.00000000000000, 0.785398163400000 );
#132 = SURFACE_STYLE_USAGE( .BOTH., #193 );
#133 = FACE_OUTER_BOUND( '', #194, .T. );
#134 = PLANE( '', #195 );
#135 = SURFACE_STYLE_USAGE( .BOTH., #196 );
#136 = FACE_OUTER_BOUND( '', #197, .T. );
#137 = FACE_BOUND( '', #198, .T. );
#138 = PLANE( '', #199 );
#139 = PRODUCT_CONTEXT( '', #25, 'mechanical' );
#140 = PRODUCT_DEFINITION_FORMATION_WITH_SPECIFIED_SOURCE( ' ', 'NONE', #68, .NOT_KNOWN. );
#141 = CLOSED_SHELL( '', ( #53, #39, #49, #45, #59, #67, #41, #47, #57, #43, #51, #63, #65, #61, #55 ) );
#142 = CARTESIAN_POINT( '', ( 0.000000000000000, 0.000000000000000, 0.000000000000000 ) );
#143 = DIRECTION( '', ( 0.000000000000000, 0.000000000000000, 1.00000000000000 ) );
#144 = DIRECTION( '', ( 1.00000000000000, 0.000000000000000, 0.000000000000000 ) );
#145 =  ( LENGTH_UNIT(  )NAMED_UNIT( #77 )SI_UNIT( .MILLI., .METRE. ) );
#146 = SURFACE_SIDE_STYLE( '', ( #201 ) );
#147 = EDGE_LOOP( '', ( #202, #203 ) );
#148 = AXIS2_PLACEMENT_3D( '', #204, #205, #206 );
#149 = SURFACE_SIDE_STYLE( '', ( #207 ) );
#150 = EDGE_LOOP( '', ( #208 ) );
#151 = EDGE_LOOP( '', ( #209 ) );
#152 = AXIS2_PLACEMENT_3D( '', #210, #211, #212 );
#153 = SURFACE_SIDE_STYLE( '', ( #213 ) );
#154 = EDGE_LOOP( '', ( #214 ) );
#155 = EDGE_LOOP( '', ( #215 ) );
#156 = AXIS2_PLACEMENT_3D( '', #216, #217, #218 );
#157 = SURFACE_SIDE_STYLE( '', ( #219 ) );
#158 = EDGE_LOOP( '', ( #220 ) );
#159 = EDGE_LOOP( '', ( #221, #222, #223, #224 ) );
#160 = AXIS2_PLACEMENT_3D( '', #225, #226, #227 );
#161 = SURFACE_SIDE_STYLE( '', ( #228 ) );
#162 = EDGE_LOOP( '', ( #229 ) );
#163 = AXIS2_PLACEMENT_3D( '', #230, #231, #232 );
#164 = SURFACE_SIDE_STYLE( '', ( #233 ) );
#165 = EDGE_LOOP( '', ( #234, #235, #236, #237, #238, #239, #240, #241 ) );
#166 = EDGE_LOOP( '', ( #242 ) );
#167 = AXIS2_PLACEMENT_3D( '', #243, #244, #245 );
#168 = SURFACE_SIDE_STYLE( '', ( #246 ) );
#169 = EDGE_LOOP( '', ( #247 ) );
#170 = EDGE_LOOP( '', ( #248 ) );
#171 = AXIS2_PLACEMENT_3D( '', #249, #250, #251 );
#172 = SURFACE_SIDE_STYLE( '', ( #252 ) );
#173 = EDGE_LOOP( '', ( #253, #254, #255, #256 ) );
#174 = AXIS2_PLACEMENT_3D( '', #257, #258, #259 );
#175 = SURFACE_SIDE_STYLE( '', ( #260 ) );
#176 = EDGE_LOOP( '', ( #261, #262 ) );
#177 = AXIS2_PLACEMENT_3D( '', #263, #264, #265 );
#178 = SURFACE_SIDE_STYLE( '', ( #266 ) );
#179 = EDGE_LOOP( '', ( #267 ) );
#180 = EDGE_LOOP( '', ( #268 ) );
#181 = AXIS2_PLACEMENT_3D( '', #269, #270, #271 );
#182 = SURFACE_SIDE_STYLE( '', ( #272 ) );
#183 = EDGE_LOOP( '', ( #273 ) );
#184 = EDGE_LOOP( '', ( #274 ) );
#185 = AXIS2_PLACEMENT_3D( '', #275, #276, #277 );
#186 = SURFACE_SIDE_STYLE( '', ( #278 ) );
#187 = EDGE_LOOP( '', ( #279, #280, #281, #282 ) );
#188 = AXIS2_PLACEMENT_3D( '', #283, #284, #285 );
#189 = SURFACE_SIDE_STYLE( '', ( #286 ) );
#190 = EDGE_LOOP( '', ( #287 ) );
#191 = EDGE_LOOP( '', ( #288 ) );
#192 = AXIS2_PLACEMENT_3D( '', #289, #290, #291 );
#193 = SURFACE_SIDE_STYLE( '', ( #292 ) );
#194 = EDGE_LOOP( '', ( #293 ) );
#195 = AXIS2_PLACEMENT_3D( '', #294, #295, #296 );
#196 = SURFACE_SIDE_STYLE( '', ( #297 ) );
#197 = EDGE_LOOP( '', ( #298 ) );
#198 = EDGE_LOOP( '', ( #299 ) );
#199 = AXIS2_PLACEMENT_3D( '', #300, #301, #302 );
#201 = SURFACE_STYLE_FILL_AREA( #303 );
#202 = ORIENTED_EDGE( '', *, *, #304, .T. );
#203 = ORIENTED_EDGE( '', *, *, #305, .T. );
#204 = CARTESIAN_POINT( '', ( 11.5000000000000, 13.0000000000000, 11.5000000000000 ) );
#205 = DIRECTION( '', ( 0.000000000000000, -1.00000000000000, 0.000000000000000 ) );
#206 = DIRECTION( '', ( 0.000000000000000, 0.000000000000000, -1.00000000000000 ) );
#207 = SURFACE_STYLE_FILL_AREA( #306 );
#208 = ORIENTED_EDGE( '', *, *, #307, .T. );
#209 = ORIENTED_EDGE( '', *, *, #308, .T. );
#210 = CARTESIAN_POINT( '', ( 4.33680868994202E-15, 17.5301296854205, 0.000000000000000 ) );
#211 = DIRECTION( '', ( 0.000000000000000, -1.00000000000000, 0.000000000000000 ) );
#212 = DIRECTION( '', ( -1.00000000000000, 0.000000000000000, 0.000000000000000 ) );
#213 = SURFACE_STYLE_FILL_AREA( #309 );
#214 = ORIENTED_EDGE( '', *, *, #310, .F. );
#215 = ORIENTED_EDGE( '', *, *, #311, .T. );
#216 = CARTESIAN_POINT( '', ( 0.000000000000000, 5.50000000000000, 0.000000000000000 ) );
#217 = DIRECTION( '', ( -0.000000000000000, -1.00000000000000, -0.000000000000000 ) );
#218 = DIRECTION( '', ( 0.000000000000000, 0.000000000000000, -1.00000000000000 ) );
#219 = SURFACE_STYLE_FILL_AREA( #312 );
#220 = ORIENTED_EDGE( '', *, *, #313, .F. );
#221 = ORIENTED_EDGE( '', *, *, #314, .F. );
#222 = ORIENTED_EDGE( '', *, *, #315, .T. );
#223 = ORIENTED_EDGE( '', *, *, #316, .F. );
#224 = ORIENTED_EDGE( '', *, *, #317, .T. );
#225 = CARTESIAN_POINT( '', ( 6.49999999999999, 8.00000000000000, 0.000000000000000 ) );
#226 = DIRECTION( '', ( 0.000000000000000, 1.00000000000000, 0.000000000000000 ) );
#227 = DIRECTION( '', ( 0.000000000000000, -0.000000000000000, 1.00000000000000 ) );
#228 = SURFACE_STYLE_FILL_AREA( #318 );
#229 = ORIENTED_EDGE( '', *, *, #307, .F. );
#230 = CARTESIAN_POINT( '', ( 0.000000000000000, 21.0000000000000, 0.000000000000000 ) );
#231 = DIRECTION( '', ( 0.000000000000000, -1.00000000000000, -0.000000000000000 ) );
#232 = DIRECTION( '', ( 0.000000000000000, 0.000000000000000, -1.00000000000000 ) );
#233 = SURFACE_STYLE_FILL_AREA( #319 );
#234 = ORIENTED_EDGE( '', *, *, #320, .F. );
#235 = ORIENTED_EDGE( '', *, *, #304, .F. );
#236 = ORIENTED_EDGE( '', *, *, #321, .F. );
#237 = ORIENTED_EDGE( '', *, *, #317, .F. );
#238 = ORIENTED_EDGE( '', *, *, #322, .F. );
#239 = ORIENTED_EDGE( '', *, *, #323, .F. );
#240 = ORIENTED_EDGE( '', *, *, #324, .F. );
#241 = ORIENTED_EDGE( '', *, *, #315, .F. );
#242 = ORIENTED_EDGE( '', *, *, #325, .T. );
#243 = CARTESIAN_POINT( '', ( 0.000000000000000, -6.57909940518611E-15, 0.000000000000000 ) );
#244 = DIRECTION( '', ( -0.000000000000000, 1.00000000000000, 0.000000000000000 ) );
#245 = DIRECTION( '', ( 0.000000000000000, 0.000000000000000, -1.00000000000000 ) );
#246 = SURFACE_STYLE_FILL_AREA( #326 );
#247 = ORIENTED_EDGE( '', *, *, #327, .F. );
#248 = ORIENTED_EDGE( '', *, *, #310, .T. );
#249 = CARTESIAN_POINT( '', ( 0.000000000000000, -6.57909940518611E-15, 0.000000000000000 ) );
#250 = DIRECTION( '', ( -0.000000000000000, 1.00000000000000, 0.000000000000000 ) );
#251 = DIRECTION( '', ( 0.000000000000000, 0.000000000000000, -1.00000000000000 ) );
#252 = SURFACE_STYLE_FILL_AREA( #328 );
#253 = ORIENTED_EDGE( '', *, *, #320, .T. );
#254 = ORIENTED_EDGE( '', *, *, #314, .T. );
#255 = ORIENTED_EDGE( '', *, *, #321, .T. );
#256 = ORIENTED_EDGE( '', *, *, #305, .F. );
#257 = CARTESIAN_POINT( '', ( 5.50000000000000, 13.0000000000000, 11.5000000000000 ) );
#258 = DIRECTION( '', ( 1.00000000000000, 0.000000000000000, -0.000000000000000 ) );
#259 = DIRECTION( '', ( -0.000000000000000, 0.000000000000000, -1.00000000000000 ) );
#260 = SURFACE_STYLE_FILL_AREA( #329 );
#261 = ORIENTED_EDGE( '', *, *, #323, .T. );
#262 = ORIENTED_EDGE( '', *, *, #330, .F. );
#263 = CARTESIAN_POINT( '', ( -5.50000000000000, 13.0000000000000, 11.5000000000000 ) );
#264 = DIRECTION( '', ( 0.000000000000000, -1.00000000000000, 0.000000000000000 ) );
#265 = DIRECTION( '', ( 0.000000000000000, 0.000000000000000, -1.00000000000000 ) );
#266 = SURFACE_STYLE_FILL_AREA( #331 );
#267 = ORIENTED_EDGE( '', *, *, #311, .F. );
#268 = ORIENTED_EDGE( '', *, *, #313, .T. );
#269 = CARTESIAN_POINT( '', ( 0.000000000000000, -6.57909940518611E-15, 0.000000000000000 ) );
#270 = DIRECTION( '', ( -0.000000000000000, 1.00000000000000, 0.000000000000000 ) );
#271 = DIRECTION( '', ( 0.000000000000000, 0.000000000000000, -1.00000000000000 ) );
#272 = SURFACE_STYLE_FILL_AREA( #332 );
#273 = ORIENTED_EDGE( '', *, *, #325, .F. );
#274 = ORIENTED_EDGE( '', *, *, #333, .T. );
#275 = CARTESIAN_POINT( '', ( 0.000000000000000, 18.8000000000000, 0.000000000000000 ) );
#276 = DIRECTION( '', ( -0.000000000000000, -1.00000000000000, -0.000000000000000 ) );
#277 = DIRECTION( '', ( 0.000000000000000, 0.000000000000000, -1.00000000000000 ) );
#278 = SURFACE_STYLE_FILL_AREA( #334 );
#279 = ORIENTED_EDGE( '', *, *, #322, .T. );
#280 = ORIENTED_EDGE( '', *, *, #316, .T. );
#281 = ORIENTED_EDGE( '', *, *, #324, .T. );
#282 = ORIENTED_EDGE( '', *, *, #330, .T. );
#283 = CARTESIAN_POINT( '', ( -5.50000000000000, 0.000000000000000, 11.5000000000000 ) );
#284 = DIRECTION( '', ( -1.00000000000000, 0.000000000000000, 0.000000000000000 ) );
#285 = DIRECTION( '', ( 0.000000000000000, 0.000000000000000, 1.00000000000000 ) );
#286 = SURFACE_STYLE_FILL_AREA( #335 );
#287 = ORIENTED_EDGE( '', *, *, #336, .F. );
#288 = ORIENTED_EDGE( '', *, *, #327, .T. );
#289 = CARTESIAN_POINT( '', ( 0.000000000000000, 0.766999999999992, 0.000000000000000 ) );
#290 = DIRECTION( '', ( -0.000000000000000, 1.00000000000000, 0.000000000000000 ) );
#291 = DIRECTION( '', ( 0.000000000000000, -0.000000000000000, 1.00000000000000 ) );
#292 = SURFACE_STYLE_FILL_AREA( #337 );
#293 = ORIENTED_EDGE( '', *, *, #336, .T. );
#294 = CARTESIAN_POINT( '', ( 3.23300000000000, -6.81320676317095E-15, 0.000000000000000 ) );
#295 = DIRECTION( '', ( 0.000000000000000, 1.00000000000000, 0.000000000000000 ) );
#296 = DIRECTION( '', ( 0.000000000000000, -0.000000000000000, 1.00000000000000 ) );
#297 = SURFACE_STYLE_FILL_AREA( #338 );
#298 = ORIENTED_EDGE( '', *, *, #333, .F. );
#299 = ORIENTED_EDGE( '', *, *, #308, .F. );
#300 = CARTESIAN_POINT( '', ( 4.82948836894303, 18.8000000000000, 0.000000000000000 ) );
#301 = DIRECTION( '', ( 0.000000000000000, -1.00000000000000, -0.000000000000000 ) );
#302 = DIRECTION( '', ( 0.000000000000000, 0.000000000000000, -1.00000000000000 ) );
#303 = FILL_AREA_STYLE( '', ( #339 ) );
#304 = EDGE_CURVE( '', #340, #341, #342, .T. );
#305 = EDGE_CURVE( '', #341, #340, #343, .T. );
#306 = FILL_AREA_STYLE( '', ( #344 ) );
#307 = EDGE_CURVE( '', #345, #345, #346, .T. );
#308 = EDGE_CURVE( '', #347, #347, #348, .F. );
#309 = FILL_AREA_STYLE( '', ( #349 ) );
#310 = EDGE_CURVE( '', #350, #350, #351, .T. );
#311 = EDGE_CURVE( '', #352, #352, #353, .T. );
#312 = FILL_AREA_STYLE( '', ( #354 ) );
#313 = EDGE_CURVE( '', #355, #355, #356, .T. );
#314 = EDGE_CURVE( '', #357, #358, #359, .T. );
#315 = EDGE_CURVE( '', #357, #360, #361, .T. );
#316 = EDGE_CURVE( '', #362, #360, #363, .T. );
#317 = EDGE_CURVE( '', #362, #358, #364, .T. );
#318 = FILL_AREA_STYLE( '', ( #365 ) );
#319 = FILL_AREA_STYLE( '', ( #366 ) );
#320 = EDGE_CURVE( '', #341, #357, #367, .T. );
#321 = EDGE_CURVE( '', #358, #340, #368, .F. );
#322 = EDGE_CURVE( '', #369, #362, #370, .T. );
#323 = EDGE_CURVE( '', #371, #369, #372, .T. );
#324 = EDGE_CURVE( '', #360, #371, #373, .F. );
#325 = EDGE_CURVE( '', #374, #374, #375, .T. );
#326 = FILL_AREA_STYLE( '', ( #376 ) );
#327 = EDGE_CURVE( '', #377, #377, #378, .T. );
#328 = FILL_AREA_STYLE( '', ( #379 ) );
#329 = FILL_AREA_STYLE( '', ( #380 ) );
#330 = EDGE_CURVE( '', #371, #369, #381, .T. );
#331 = FILL_AREA_STYLE( '', ( #382 ) );
#332 = FILL_AREA_STYLE( '', ( #383 ) );
#333 = EDGE_CURVE( '', #384, #384, #385, .T. );
#334 = FILL_AREA_STYLE( '', ( #386 ) );
#335 = FILL_AREA_STYLE( '', ( #387 ) );
#336 = EDGE_CURVE( '', #388, #388, #389, .T. );
#337 = FILL_AREA_STYLE( '', ( #390 ) );
#338 = FILL_AREA_STYLE( '', ( #391 ) );
#339 = FILL_AREA_STYLE_COLOUR( '', #392 );
#340 = VERTEX_POINT( '', #393 );
#341 = VERTEX_POINT( '', #394 );
#342 = CIRCLE( '', #395, 6.50000000000000 );
#343 = LINE( '', #396, #397 );
#344 = FILL_AREA_STYLE_COLOUR( '', #398 );
#345 = VERTEX_POINT( '', #399 );
#346 = CIRCLE( '', #400, 3.60000000000000 );
#347 = VERTEX_POINT( '', #401 );
#348 = CIRCLE( '', #402, 4.83605514690000 );
#349 = FILL_AREA_STYLE_COLOUR( '', #403 );
#350 = VERTEX_POINT( '', #404 );
#351 = CIRCLE( '', #405, 4.00000000000000 );
#352 = VERTEX_POINT( '', #406 );
#353 = CIRCLE( '', #407, 3.23300000000000 );
#354 = FILL_AREA_STYLE_COLOUR( '', #408 );
#355 = VERTEX_POINT( '', #409 );
#356 = CIRCLE( '', #410, 3.23300000000000 );
#357 = VERTEX_POINT( '', #411 );
#358 = VERTEX_POINT( '', #412 );
#359 = LINE( '', #413, #414 );
#360 = VERTEX_POINT( '', #415 );
#361 = CIRCLE( '', #416, 6.50000000000000 );
#362 = VERTEX_POINT( '', #417 );
#363 = LINE( '', #418, #419 );
#364 = CIRCLE( '', #420, 6.50000000000000 );
#365 = FILL_AREA_STYLE_COLOUR( '', #421 );
#366 = FILL_AREA_STYLE_COLOUR( '', #422 );
#367 = LINE( '', #423, #424 );
#368 = LINE( '', #425, #426 );
#369 = VERTEX_POINT( '', #427 );
#370 = LINE( '', #428, #429 );
#371 = VERTEX_POINT( '', #430 );
#372 = CIRCLE( '', #431, 6.50000000000000 );
#373 = LINE( '', #432, #433 );
#374 = VERTEX_POINT( '', #434 );
#375 = CIRCLE( '', #435, 6.50000000000000 );
#376 = FILL_AREA_STYLE_COLOUR( '', #436 );
#377 = VERTEX_POINT( '', #437 );
#378 = CIRCLE( '', #438, 4.00000000000000 );
#379 = FILL_AREA_STYLE_COLOUR( '', #439 );
#380 = FILL_AREA_STYLE_COLOUR( '', #440 );
#381 = LINE( '', #441, #442 );
#382 = FILL_AREA_STYLE_COLOUR( '', #443 );
#383 = FILL_AREA_STYLE_COLOUR( '', #444 );
#384 = VERTEX_POINT( '', #445 );
#385 = CIRCLE( '', #446, 5.12948836890000 );
#386 = FILL_AREA_STYLE_COLOUR( '', #447 );
#387 = FILL_AREA_STYLE_COLOUR( '', #448 );
#388 = VERTEX_POINT( '', #449 );
#389 = CIRCLE( '', #450, 3.23300000000000 );
#390 = FILL_AREA_STYLE_COLOUR( '', #451 );
#391 = FILL_AREA_STYLE_COLOUR( '', #452 );
#392 = COLOUR_RGB( '', 0.689999997600000, 0.689999997600000, 0.689999997600000 );
#393 = CARTESIAN_POINT( '', ( 5.50000000000000, 13.0000000000000, -3.46410161513775 ) );
#394 = CARTESIAN_POINT( '', ( 5.50000000000000, 13.0000000000000, 3.46410161513775 ) );
#395 = AXIS2_PLACEMENT_3D( '', #453, #454, #455 );
#396 = CARTESIAN_POINT( '', ( 5.50000000000000, 13.0000000000000, 11.5000000000000 ) );
#397 = VECTOR( '', #456, 1000.00000000000 );
#398 = COLOUR_RGB( '', 0.689999997600000, 0.689999997600000, 0.689999997600000 );
#399 = CARTESIAN_POINT( '', ( 0.000000000000000, 21.0000000000000, -3.60000000000000 ) );
#400 = AXIS2_PLACEMENT_3D( '', #457, #458, #459 );
#401 = CARTESIAN_POINT( '', ( 4.33680868994202E-15, 18.8000000000000, -4.83605514693017 ) );
#402 = AXIS2_PLACEMENT_3D( '', #460, #461, #462 );
#403 = COLOUR_RGB( '', 0.689999997600000, 0.689999997600000, 0.689999997600000 );
#404 = CARTESIAN_POINT( '', ( 0.000000000000000, 4.73300000000000, -4.00000000000000 ) );
#405 = AXIS2_PLACEMENT_3D( '', #463, #464, #465 );
#406 = CARTESIAN_POINT( '', ( 0.000000000000000, 5.50000000000000, -3.23300000000000 ) );
#407 = AXIS2_PLACEMENT_3D( '', #466, #467, #468 );
#408 = COLOUR_RGB( '', 0.689999997600000, 0.689999997600000, 0.689999997600000 );
#409 = CARTESIAN_POINT( '', ( 0.000000000000000, 8.00000000000000, -3.23300000000000 ) );
#410 = AXIS2_PLACEMENT_3D( '', #469, #470, #471 );
#411 = CARTESIAN_POINT( '', ( 5.50000000000000, 8.00000000000000, 3.46410161513774 ) );
#412 = CARTESIAN_POINT( '', ( 5.50000000000000, 8.00000000000000, -3.46410161513774 ) );
#413 = CARTESIAN_POINT( '', ( 5.50000000000000, 8.00000000000000, 0.000000000000000 ) );
#414 = VECTOR( '', #472, 1000.00000000000 );
#415 = CARTESIAN_POINT( '', ( -5.50000000000000, 8.00000000000000, 3.46410161513774 ) );
#416 = AXIS2_PLACEMENT_3D( '', #473, #474, #475 );
#417 = CARTESIAN_POINT( '', ( -5.50000000000000, 8.00000000000000, -3.46410161513774 ) );
#418 = CARTESIAN_POINT( '', ( -5.50000000000000, 8.00000000000000, 0.000000000000000 ) );
#419 = VECTOR( '', #476, 1000.00000000000 );
#420 = AXIS2_PLACEMENT_3D( '', #477, #478, #479 );
#421 = COLOUR_RGB( '', 0.689999997600000, 0.689999997600000, 0.689999997600000 );
#422 = COLOUR_RGB( '', 0.689999997600000, 0.689999997600000, 0.689999997600000 );
#423 = CARTESIAN_POINT( '', ( 5.50000000000000, -6.57909940518611E-15, 3.46410161513775 ) );
#424 = VECTOR( '', #480, 1000.00000000000 );
#425 = CARTESIAN_POINT( '', ( 5.50000000000000, -6.57909940518611E-15, -3.46410161513775 ) );
#426 = VECTOR( '', #481, 1000.00000000000 );
#427 = CARTESIAN_POINT( '', ( -5.50000000000000, 13.0000000000000, -3.46410161513775 ) );
#428 = CARTESIAN_POINT( '', ( -5.50000000000000, -6.57909940518611E-15, -3.46410161513775 ) );
#429 = VECTOR( '', #482, 1000.00000000000 );
#430 = CARTESIAN_POINT( '', ( -5.50000000000000, 13.0000000000000, 3.46410161513775 ) );
#431 = AXIS2_PLACEMENT_3D( '', #483, #484, #485 );
#432 = CARTESIAN_POINT( '', ( -5.50000000000000, -6.57909940518611E-15, 3.46410161513775 ) );
#433 = VECTOR( '', #486, 1000.00000000000 );
#434 = CARTESIAN_POINT( '', ( 0.000000000000000, 16.5000000000000, -6.50000000000000 ) );
#435 = AXIS2_PLACEMENT_3D( '', #487, #488, #489 );
#436 = COLOUR_RGB( '', 0.689999997600000, 0.689999997600000, 0.689999997600000 );
#437 = CARTESIAN_POINT( '', ( 0.000000000000000, 0.766999999999992, -4.00000000000000 ) );
#438 = AXIS2_PLACEMENT_3D( '', #490, #491, #492 );
#439 = COLOUR_RGB( '', 0.689999997600000, 0.689999997600000, 0.689999997600000 );
#440 = COLOUR_RGB( '', 0.689999997600000, 0.689999997600000, 0.689999997600000 );
#441 = CARTESIAN_POINT( '', ( -5.50000000000000, 13.0000000000000, 11.5000000000000 ) );
#442 = VECTOR( '', #493, 1000.00000000000 );
#443 = COLOUR_RGB( '', 0.689999997600000, 0.689999997600000, 0.689999997600000 );
#444 = COLOUR_RGB( '', 0.689999997600000, 0.689999997600000, 0.689999997600000 );
#445 = CARTESIAN_POINT( '', ( 0.000000000000000, 18.8000000000000, -5.12948836894302 ) );
#446 = AXIS2_PLACEMENT_3D( '', #494, #495, #496 );
#447 = COLOUR_RGB( '', 0.689999997600000, 0.689999997600000, 0.689999997600000 );
#448 = COLOUR_RGB( '', 0.689999997600000, 0.689999997600000, 0.689999997600000 );
#449 = CARTESIAN_POINT( '', ( 0.000000000000000, -7.04731412115578E-15, -3.23300000000000 ) );
#450 = AXIS2_PLACEMENT_3D( '', #497, #498, #499 );
#451 = COLOUR_RGB( '', 0.689999997600000, 0.689999997600000, 0.689999997600000 );
#452 = COLOUR_RGB( '', 0.689999997600000, 0.689999997600000, 0.689999997600000 );
#453 = CARTESIAN_POINT( '', ( 0.000000000000000, 13.0000000000000, 0.000000000000000 ) );
#454 = DIRECTION( '', ( 0.000000000000000, -1.00000000000000, 0.000000000000000 ) );
#455 = DIRECTION( '', ( 0.000000000000000, 0.000000000000000, -1.00000000000000 ) );
#456 = DIRECTION( '', ( -0.000000000000000, -0.000000000000000, -1.00000000000000 ) );
#457 = CARTESIAN_POINT( '', ( 0.000000000000000, 21.0000000000000, 0.000000000000000 ) );
#458 = DIRECTION( '', ( 0.000000000000000, -1.00000000000000, -0.000000000000000 ) );
#459 = DIRECTION( '', ( 0.000000000000000, 0.000000000000000, -1.00000000000000 ) );
#460 = CARTESIAN_POINT( '', ( 4.33680868994202E-15, 18.8000000000000, 0.000000000000000 ) );
#461 = DIRECTION( '', ( 0.000000000000000, -1.00000000000000, -0.000000000000000 ) );
#462 = DIRECTION( '', ( 0.000000000000000, 0.000000000000000, -1.00000000000000 ) );
#463 = CARTESIAN_POINT( '', ( 0.000000000000000, 4.73300000000000, 0.000000000000000 ) );
#464 = DIRECTION( '', ( 0.000000000000000, -1.00000000000000, -0.000000000000000 ) );
#465 = DIRECTION( '', ( 0.000000000000000, 0.000000000000000, -1.00000000000000 ) );
#466 = CARTESIAN_POINT( '', ( 0.000000000000000, 5.50000000000000, 0.000000000000000 ) );
#467 = DIRECTION( '', ( 0.000000000000000, -1.00000000000000, -0.000000000000000 ) );
#468 = DIRECTION( '', ( 0.000000000000000, 0.000000000000000, -1.00000000000000 ) );
#469 = CARTESIAN_POINT( '', ( 0.000000000000000, 8.00000000000000, 0.000000000000000 ) );
#470 = DIRECTION( '', ( 0.000000000000000, -1.00000000000000, -0.000000000000000 ) );
#471 = DIRECTION( '', ( 0.000000000000000, 0.000000000000000, -1.00000000000000 ) );
#472 = DIRECTION( '', ( -0.000000000000000, 0.000000000000000, -1.00000000000000 ) );
#473 = CARTESIAN_POINT( '', ( 0.000000000000000, 8.00000000000000, 0.000000000000000 ) );
#474 = DIRECTION( '', ( 0.000000000000000, -1.00000000000000, -0.000000000000000 ) );
#475 = DIRECTION( '', ( 0.000000000000000, 0.000000000000000, -1.00000000000000 ) );
#476 = DIRECTION( '', ( 0.000000000000000, -0.000000000000000, 1.00000000000000 ) );
#477 = CARTESIAN_POINT( '', ( 0.000000000000000, 8.00000000000000, 0.000000000000000 ) );
#478 = DIRECTION( '', ( 0.000000000000000, -1.00000000000000, -0.000000000000000 ) );
#479 = DIRECTION( '', ( 0.000000000000000, 0.000000000000000, -1.00000000000000 ) );
#480 = DIRECTION( '', ( -0.000000000000000, -1.00000000000000, -0.000000000000000 ) );
#481 = DIRECTION( '', ( -0.000000000000000, -1.00000000000000, -0.000000000000000 ) );
#482 = DIRECTION( '', ( -0.000000000000000, -1.00000000000000, -0.000000000000000 ) );
#483 = CARTESIAN_POINT( '', ( 0.000000000000000, 13.0000000000000, 0.000000000000000 ) );
#484 = DIRECTION( '', ( 0.000000000000000, -1.00000000000000, 0.000000000000000 ) );
#485 = DIRECTION( '', ( 0.000000000000000, 0.000000000000000, -1.00000000000000 ) );
#486 = DIRECTION( '', ( -0.000000000000000, -1.00000000000000, -0.000000000000000 ) );
#487 = CARTESIAN_POINT( '', ( 0.000000000000000, 16.5000000000000, 0.000000000000000 ) );
#488 = DIRECTION( '', ( 0.000000000000000, -1.00000000000000, -0.000000000000000 ) );
#489 = DIRECTION( '', ( 0.000000000000000, 0.000000000000000, -1.00000000000000 ) );
#490 = CARTESIAN_POINT( '', ( 0.000000000000000, 0.766999999999992, 0.000000000000000 ) );
#491 = DIRECTION( '', ( 0.000000000000000, -1.00000000000000, -0.000000000000000 ) );
#492 = DIRECTION( '', ( 0.000000000000000, 0.000000000000000, -1.00000000000000 ) );
#493 = DIRECTION( '', ( -0.000000000000000, -0.000000000000000, -1.00000000000000 ) );
#494 = CARTESIAN_POINT( '', ( 0.000000000000000, 18.8000000000000, 0.000000000000000 ) );
#495 = DIRECTION( '', ( 0.000000000000000, -1.00000000000000, -0.000000000000000 ) );
#496 = DIRECTION( '', ( 0.000000000000000, 0.000000000000000, -1.00000000000000 ) );
#497 = CARTESIAN_POINT( '', ( 0.000000000000000, -7.04731412115578E-15, 0.000000000000000 ) );
#498 = DIRECTION( '', ( 0.000000000000000, -1.00000000000000, -0.000000000000000 ) );
#499 = DIRECTION( '', ( 0.000000000000000, 0.000000000000000, -1.00000000000000 ) );
ENDSEC;
END-ISO-10303-21;
