ISO-10303-21;
HEADER;
FILE_DESCRIPTION( ( 'STEP AP214' ), '1' );
FILE_NAME( '//goodhand-server/Shared Folders/GoodHand Data/Kipp CAD/K0757/K0757.100010X0500.stp', '2020-12-10T08:49:46', ( '' ), ( '' ), ' ', 'PARTsolutions', ' ' );
FILE_SCHEMA( ( 'AUTOMOTIVE_DESIGN { 1 0 10303 214 1 1 1 1 }' ) );
ENDSEC;
DATA;
#1 = MECHANICAL_DESIGN_GEOMETRIC_PRESENTATION_REPRESENTATION( ' ', ( #10, #11, #12, #13, #14, #15, #16, #17, #18 ), #6 );
#2 = PRODUCT_DEFINITION_CONTEXT( '', #19, 'design' );
#3 = APPLICATION_PROTOCOL_DEFINITION( 'international standard', 'automotive_design', 2001, #19 );
#4 = PRODUCT_CATEGORY_RELATIONSHIP( 'NONE', 'NONE', #20, #21 );
#5 = SHAPE_DEFINITION_REPRESENTATION( #22, #23 );
#6 =  ( GEOMETRIC_REPRESENTATION_CONTEXT( 3 )GLOBAL_UNCERTAINTY_ASSIGNED_CONTEXT( ( #26 ) )GLOBAL_UNIT_ASSIGNED_CONTEXT( ( #28, #29, #30 ) )REPRESENTATION_CONTEXT( 'NONE', 'WORKSPACE' ) );
#10 = STYLED_ITEM( '', ( #32 ), #33 );
#11 = STYLED_ITEM( '', ( #34 ), #35 );
#12 = STYLED_ITEM( '', ( #36 ), #37 );
#13 = STYLED_ITEM( '', ( #38 ), #39 );
#14 = STYLED_ITEM( '', ( #40 ), #41 );
#15 = STYLED_ITEM( '', ( #42 ), #43 );
#16 = STYLED_ITEM( '', ( #44 ), #45 );
#17 = STYLED_ITEM( '', ( #46 ), #47 );
#18 = STYLED_ITEM( '', ( #48 ), #49 );
#19 = APPLICATION_CONTEXT( 'core data for automotive mechanical design processes' );
#20 = PRODUCT_CATEGORY( 'part', 'NONE' );
#21 = PRODUCT_RELATED_PRODUCT_CATEGORY( 'detail', ' ', ( #50 ) );
#22 = PRODUCT_DEFINITION_SHAPE( 'NONE', 'NONE', #51 );
#23 = ADVANCED_BREP_SHAPE_REPRESENTATION( '_K0757.100010X0500', ( #52, #53 ), #6 );
#26 = UNCERTAINTY_MEASURE_WITH_UNIT( LENGTH_MEASURE( 0.00100000000000000 ), #28, '', '' );
#28 =  ( CONVERSION_BASED_UNIT( 'MILLIMETRE', #56 )LENGTH_UNIT(  )NAMED_UNIT( #59 ) );
#29 =  ( NAMED_UNIT( #61 )PLANE_ANGLE_UNIT(  )SI_UNIT( $, .RADIAN. ) );
#30 =  ( NAMED_UNIT( #61 )SI_UNIT( $, .STERADIAN. )SOLID_ANGLE_UNIT(  ) );
#32 = PRESENTATION_STYLE_ASSIGNMENT( ( #67 ) );
#33 = ADVANCED_FACE( '', ( #68, #69 ), #70, .F. );
#34 = PRESENTATION_STYLE_ASSIGNMENT( ( #71 ) );
#35 = ADVANCED_FACE( '', ( #72 ), #73, .F. );
#36 = PRESENTATION_STYLE_ASSIGNMENT( ( #74 ) );
#37 = ADVANCED_FACE( '', ( #75, #76, #77, #78 ), #79, .F. );
#38 = PRESENTATION_STYLE_ASSIGNMENT( ( #80 ) );
#39 = ADVANCED_FACE( '', ( #81, #82, #83, #84 ), #85, .T. );
#40 = PRESENTATION_STYLE_ASSIGNMENT( ( #86 ) );
#41 = ADVANCED_FACE( '', ( #87 ), #88, .F. );
#42 = PRESENTATION_STYLE_ASSIGNMENT( ( #89 ) );
#43 = ADVANCED_FACE( '', ( #90 ), #91, .F. );
#44 = PRESENTATION_STYLE_ASSIGNMENT( ( #92 ) );
#45 = ADVANCED_FACE( '', ( #93, #94 ), #95, .F. );
#46 = PRESENTATION_STYLE_ASSIGNMENT( ( #96 ) );
#47 = ADVANCED_FACE( '', ( #97 ), #98, .F. );
#48 = PRESENTATION_STYLE_ASSIGNMENT( ( #99 ) );
#49 = ADVANCED_FACE( '', ( #100, #101 ), #102, .F. );
#50 = PRODUCT( '_K0757.100010X0500', '_K0757.100010X0500', 'PART-_K0757.100010X0500-DESC', ( #103 ) );
#51 = PRODUCT_DEFINITION( 'NONE', 'NONE', #104, #2 );
#52 = MANIFOLD_SOLID_BREP( '_K0757.100010X0500', #105 );
#53 = AXIS2_PLACEMENT_3D( '', #106, #107, #108 );
#56 = LENGTH_MEASURE_WITH_UNIT( LENGTH_MEASURE( 1.00000000000000 ), #109 );
#59 = DIMENSIONAL_EXPONENTS( 1.00000000000000, 0.000000000000000, 0.000000000000000, 0.000000000000000, 0.000000000000000, 0.000000000000000, 0.000000000000000 );
#61 = DIMENSIONAL_EXPONENTS( 0.000000000000000, 0.000000000000000, 0.000000000000000, 0.000000000000000, 0.000000000000000, 0.000000000000000, 0.000000000000000 );
#67 = SURFACE_STYLE_USAGE( .BOTH., #110 );
#68 = FACE_BOUND( '', #111, .T. );
#69 = FACE_OUTER_BOUND( '', #112, .T. );
#70 = CONICAL_SURFACE( '', #113, 4.05000000000000, 0.785398163400000 );
#71 = SURFACE_STYLE_USAGE( .BOTH., #114 );
#72 = FACE_OUTER_BOUND( '', #115, .T. );
#73 = PLANE( '', #116 );
#74 = SURFACE_STYLE_USAGE( .BOTH., #117 );
#75 = FACE_BOUND( '', #118, .T. );
#76 = FACE_BOUND( '', #119, .T. );
#77 = FACE_BOUND( '', #120, .T. );
#78 = FACE_OUTER_BOUND( '', #121, .T. );
#79 = PLANE( '', #122 );
#80 = SURFACE_STYLE_USAGE( .BOTH., #123 );
#81 = FACE_BOUND( '', #124, .T. );
#82 = FACE_BOUND( '', #125, .T. );
#83 = FACE_BOUND( '', #126, .T. );
#84 = FACE_OUTER_BOUND( '', #127, .T. );
#85 = PLANE( '', #128 );
#86 = SURFACE_STYLE_USAGE( .BOTH., #129 );
#87 = FACE_OUTER_BOUND( '', #130, .T. );
#88 = PLANE( '', #131 );
#89 = SURFACE_STYLE_USAGE( .BOTH., #132 );
#90 = FACE_OUTER_BOUND( '', #133, .T. );
#91 = PLANE( '', #134 );
#92 = SURFACE_STYLE_USAGE( .BOTH., #135 );
#93 = FACE_BOUND( '', #136, .T. );
#94 = FACE_OUTER_BOUND( '', #137, .T. );
#95 = CONICAL_SURFACE( '', #138, 4.05000000000000, 0.785398163400000 );
#96 = SURFACE_STYLE_USAGE( .BOTH., #139 );
#97 = FACE_OUTER_BOUND( '', #140, .T. );
#98 = PLANE( '', #141 );
#99 = SURFACE_STYLE_USAGE( .BOTH., #142 );
#100 = FACE_BOUND( '', #143, .T. );
#101 = FACE_OUTER_BOUND( '', #144, .T. );
#102 = CONICAL_SURFACE( '', #145, 4.05000000000000, 0.785398163400000 );
#103 = PRODUCT_CONTEXT( '', #19, 'mechanical' );
#104 = PRODUCT_DEFINITION_FORMATION_WITH_SPECIFIED_SOURCE( ' ', 'NONE', #50, .NOT_KNOWN. );
#105 = CLOSED_SHELL( '', ( #37, #49, #39, #35, #43, #41, #47, #45, #33 ) );
#106 = CARTESIAN_POINT( '', ( 0.000000000000000, 0.000000000000000, 0.000000000000000 ) );
#107 = DIRECTION( '', ( 0.000000000000000, 0.000000000000000, 1.00000000000000 ) );
#108 = DIRECTION( '', ( 1.00000000000000, 0.000000000000000, 0.000000000000000 ) );
#109 =  ( LENGTH_UNIT(  )NAMED_UNIT( #59 )SI_UNIT( .MILLI., .METRE. ) );
#110 = SURFACE_SIDE_STYLE( '', ( #147 ) );
#111 = EDGE_LOOP( '', ( #148 ) );
#112 = EDGE_LOOP( '', ( #149 ) );
#113 = AXIS2_PLACEMENT_3D( '', #150, #151, #152 );
#114 = SURFACE_SIDE_STYLE( '', ( #153 ) );
#115 = EDGE_LOOP( '', ( #154, #155, #156, #157 ) );
#116 = AXIS2_PLACEMENT_3D( '', #158, #159, #160 );
#117 = SURFACE_SIDE_STYLE( '', ( #161 ) );
#118 = EDGE_LOOP( '', ( #162 ) );
#119 = EDGE_LOOP( '', ( #163 ) );
#120 = EDGE_LOOP( '', ( #164 ) );
#121 = EDGE_LOOP( '', ( #165, #166, #167, #168 ) );
#122 = AXIS2_PLACEMENT_3D( '', #169, #170, #171 );
#123 = SURFACE_SIDE_STYLE( '', ( #172 ) );
#124 = EDGE_LOOP( '', ( #173 ) );
#125 = EDGE_LOOP( '', ( #174 ) );
#126 = EDGE_LOOP( '', ( #175 ) );
#127 = EDGE_LOOP( '', ( #176, #177, #178, #179 ) );
#128 = AXIS2_PLACEMENT_3D( '', #180, #181, #182 );
#129 = SURFACE_SIDE_STYLE( '', ( #183 ) );
#130 = EDGE_LOOP( '', ( #184, #185, #186, #187 ) );
#131 = AXIS2_PLACEMENT_3D( '', #188, #189, #190 );
#132 = SURFACE_SIDE_STYLE( '', ( #191 ) );
#133 = EDGE_LOOP( '', ( #192, #193, #194, #195 ) );
#134 = AXIS2_PLACEMENT_3D( '', #196, #197, #198 );
#135 = SURFACE_SIDE_STYLE( '', ( #199 ) );
#136 = EDGE_LOOP( '', ( #200 ) );
#137 = EDGE_LOOP( '', ( #201 ) );
#138 = AXIS2_PLACEMENT_3D( '', #202, #203, #204 );
#139 = SURFACE_SIDE_STYLE( '', ( #205 ) );
#140 = EDGE_LOOP( '', ( #206, #207, #208, #209 ) );
#141 = AXIS2_PLACEMENT_3D( '', #210, #211, #212 );
#142 = SURFACE_SIDE_STYLE( '', ( #213 ) );
#143 = EDGE_LOOP( '', ( #214 ) );
#144 = EDGE_LOOP( '', ( #215 ) );
#145 = AXIS2_PLACEMENT_3D( '', #216, #217, #218 );
#147 = SURFACE_STYLE_FILL_AREA( #219 );
#148 = ORIENTED_EDGE( '', *, *, #220, .T. );
#149 = ORIENTED_EDGE( '', *, *, #221, .F. );
#150 = CARTESIAN_POINT( '', ( 260.000000000000, 7.50000000000000, 2.00000000000000 ) );
#151 = DIRECTION( '', ( 0.000000000000000, -0.000000000000000, 1.00000000000000 ) );
#152 = DIRECTION( '', ( 1.00000000000000, 0.000000000000000, -0.000000000000000 ) );
#153 = SURFACE_STYLE_FILL_AREA( #222 );
#154 = ORIENTED_EDGE( '', *, *, #223, .T. );
#155 = ORIENTED_EDGE( '', *, *, #224, .F. );
#156 = ORIENTED_EDGE( '', *, *, #225, .F. );
#157 = ORIENTED_EDGE( '', *, *, #226, .T. );
#158 = CARTESIAN_POINT( '', ( 510.000000000000, 0.000000000000000, 2.00000000000000 ) );
#159 = DIRECTION( '', ( -1.00000000000000, 0.000000000000000, 0.000000000000000 ) );
#160 = DIRECTION( '', ( 0.000000000000000, 0.000000000000000, 1.00000000000000 ) );
#161 = SURFACE_STYLE_FILL_AREA( #227 );
#162 = ORIENTED_EDGE( '', *, *, #220, .F. );
#163 = ORIENTED_EDGE( '', *, *, #228, .F. );
#164 = ORIENTED_EDGE( '', *, *, #229, .F. );
#165 = ORIENTED_EDGE( '', *, *, #230, .F. );
#166 = ORIENTED_EDGE( '', *, *, #223, .F. );
#167 = ORIENTED_EDGE( '', *, *, #231, .F. );
#168 = ORIENTED_EDGE( '', *, *, #232, .F. );
#169 = CARTESIAN_POINT( '', ( 0.000000000000000, 0.000000000000000, 0.000000000000000 ) );
#170 = DIRECTION( '', ( 0.000000000000000, 0.000000000000000, 1.00000000000000 ) );
#171 = DIRECTION( '', ( 1.00000000000000, 0.000000000000000, -0.000000000000000 ) );
#172 = SURFACE_STYLE_FILL_AREA( #233 );
#173 = ORIENTED_EDGE( '', *, *, #221, .T. );
#174 = ORIENTED_EDGE( '', *, *, #234, .T. );
#175 = ORIENTED_EDGE( '', *, *, #235, .T. );
#176 = ORIENTED_EDGE( '', *, *, #236, .T. );
#177 = ORIENTED_EDGE( '', *, *, #237, .T. );
#178 = ORIENTED_EDGE( '', *, *, #238, .T. );
#179 = ORIENTED_EDGE( '', *, *, #225, .T. );
#180 = CARTESIAN_POINT( '', ( 0.000000000000000, 0.000000000000000, 2.00000000000000 ) );
#181 = DIRECTION( '', ( 0.000000000000000, 0.000000000000000, 1.00000000000000 ) );
#182 = DIRECTION( '', ( 1.00000000000000, 0.000000000000000, -0.000000000000000 ) );
#183 = SURFACE_STYLE_FILL_AREA( #239 );
#184 = ORIENTED_EDGE( '', *, *, #232, .T. );
#185 = ORIENTED_EDGE( '', *, *, #240, .F. );
#186 = ORIENTED_EDGE( '', *, *, #237, .F. );
#187 = ORIENTED_EDGE( '', *, *, #241, .T. );
#188 = CARTESIAN_POINT( '', ( 0.000000000000000, 15.0000000000000, 2.00000000000000 ) );
#189 = DIRECTION( '', ( 1.00000000000000, 0.000000000000000, -0.000000000000000 ) );
#190 = DIRECTION( '', ( -0.000000000000000, 0.000000000000000, -1.00000000000000 ) );
#191 = SURFACE_STYLE_FILL_AREA( #242 );
#192 = ORIENTED_EDGE( '', *, *, #230, .T. );
#193 = ORIENTED_EDGE( '', *, *, #241, .F. );
#194 = ORIENTED_EDGE( '', *, *, #236, .F. );
#195 = ORIENTED_EDGE( '', *, *, #224, .T. );
#196 = CARTESIAN_POINT( '', ( 510.000000000000, 15.0000000000000, 2.00000000000000 ) );
#197 = DIRECTION( '', ( 0.000000000000000, -1.00000000000000, 0.000000000000000 ) );
#198 = DIRECTION( '', ( 0.000000000000000, 0.000000000000000, -1.00000000000000 ) );
#199 = SURFACE_STYLE_FILL_AREA( #243 );
#200 = ORIENTED_EDGE( '', *, *, #228, .T. );
#201 = ORIENTED_EDGE( '', *, *, #234, .F. );
#202 = CARTESIAN_POINT( '', ( 490.000000000000, 7.50000000000000, 2.00000000000000 ) );
#203 = DIRECTION( '', ( 0.000000000000000, -0.000000000000000, 1.00000000000000 ) );
#204 = DIRECTION( '', ( 1.00000000000000, 0.000000000000000, -0.000000000000000 ) );
#205 = SURFACE_STYLE_FILL_AREA( #244 );
#206 = ORIENTED_EDGE( '', *, *, #231, .T. );
#207 = ORIENTED_EDGE( '', *, *, #226, .F. );
#208 = ORIENTED_EDGE( '', *, *, #238, .F. );
#209 = ORIENTED_EDGE( '', *, *, #240, .T. );
#210 = CARTESIAN_POINT( '', ( 0.000000000000000, 0.000000000000000, 2.00000000000000 ) );
#211 = DIRECTION( '', ( 0.000000000000000, 1.00000000000000, 0.000000000000000 ) );
#212 = DIRECTION( '', ( 0.000000000000000, -0.000000000000000, 1.00000000000000 ) );
#213 = SURFACE_STYLE_FILL_AREA( #245 );
#214 = ORIENTED_EDGE( '', *, *, #229, .T. );
#215 = ORIENTED_EDGE( '', *, *, #235, .F. );
#216 = CARTESIAN_POINT( '', ( 10.0000000000000, 7.50000000000000, 2.00000000000000 ) );
#217 = DIRECTION( '', ( 0.000000000000000, -0.000000000000000, 1.00000000000000 ) );
#218 = DIRECTION( '', ( 1.00000000000000, 0.000000000000000, -0.000000000000000 ) );
#219 = FILL_AREA_STYLE( '', ( #246 ) );
#220 = EDGE_CURVE( '', #247, #247, #248, .T. );
#221 = EDGE_CURVE( '', #249, #249, #250, .T. );
#222 = FILL_AREA_STYLE( '', ( #251 ) );
#223 = EDGE_CURVE( '', #252, #253, #254, .T. );
#224 = EDGE_CURVE( '', #255, #253, #256, .T. );
#225 = EDGE_CURVE( '', #257, #255, #258, .T. );
#226 = EDGE_CURVE( '', #257, #252, #259, .T. );
#227 = FILL_AREA_STYLE( '', ( #260 ) );
#228 = EDGE_CURVE( '', #261, #261, #262, .T. );
#229 = EDGE_CURVE( '', #263, #263, #264, .T. );
#230 = EDGE_CURVE( '', #253, #265, #266, .T. );
#231 = EDGE_CURVE( '', #267, #252, #268, .T. );
#232 = EDGE_CURVE( '', #265, #267, #269, .T. );
#233 = FILL_AREA_STYLE( '', ( #270 ) );
#234 = EDGE_CURVE( '', #271, #271, #272, .T. );
#235 = EDGE_CURVE( '', #273, #273, #274, .T. );
#236 = EDGE_CURVE( '', #255, #275, #276, .T. );
#237 = EDGE_CURVE( '', #275, #277, #278, .T. );
#238 = EDGE_CURVE( '', #277, #257, #279, .T. );
#239 = FILL_AREA_STYLE( '', ( #280 ) );
#240 = EDGE_CURVE( '', #277, #267, #281, .T. );
#241 = EDGE_CURVE( '', #275, #265, #282, .T. );
#242 = FILL_AREA_STYLE( '', ( #283 ) );
#243 = FILL_AREA_STYLE( '', ( #284 ) );
#244 = FILL_AREA_STYLE( '', ( #285 ) );
#245 = FILL_AREA_STYLE( '', ( #286 ) );
#246 = FILL_AREA_STYLE_COLOUR( '', #287 );
#247 = VERTEX_POINT( '', #288 );
#248 = CIRCLE( '', #289, 2.05000000000000 );
#249 = VERTEX_POINT( '', #290 );
#250 = CIRCLE( '', #291, 4.05000000000000 );
#251 = FILL_AREA_STYLE_COLOUR( '', #292 );
#252 = VERTEX_POINT( '', #293 );
#253 = VERTEX_POINT( '', #294 );
#254 = LINE( '', #295, #296 );
#255 = VERTEX_POINT( '', #297 );
#256 = LINE( '', #298, #299 );
#257 = VERTEX_POINT( '', #300 );
#258 = LINE( '', #301, #302 );
#259 = LINE( '', #303, #304 );
#260 = FILL_AREA_STYLE_COLOUR( '', #305 );
#261 = VERTEX_POINT( '', #306 );
#262 = CIRCLE( '', #307, 2.05000000000000 );
#263 = VERTEX_POINT( '', #308 );
#264 = CIRCLE( '', #309, 2.05000000000000 );
#265 = VERTEX_POINT( '', #310 );
#266 = LINE( '', #311, #312 );
#267 = VERTEX_POINT( '', #313 );
#268 = LINE( '', #314, #315 );
#269 = LINE( '', #316, #317 );
#270 = FILL_AREA_STYLE_COLOUR( '', #318 );
#271 = VERTEX_POINT( '', #319 );
#272 = CIRCLE( '', #320, 4.05000000000000 );
#273 = VERTEX_POINT( '', #321 );
#274 = CIRCLE( '', #322, 4.05000000000000 );
#275 = VERTEX_POINT( '', #323 );
#276 = LINE( '', #324, #325 );
#277 = VERTEX_POINT( '', #326 );
#278 = LINE( '', #327, #328 );
#279 = LINE( '', #329, #330 );
#280 = FILL_AREA_STYLE_COLOUR( '', #331 );
#281 = LINE( '', #332, #333 );
#282 = LINE( '', #334, #335 );
#283 = FILL_AREA_STYLE_COLOUR( '', #336 );
#284 = FILL_AREA_STYLE_COLOUR( '', #337 );
#285 = FILL_AREA_STYLE_COLOUR( '', #338 );
#286 = FILL_AREA_STYLE_COLOUR( '', #339 );
#287 = COLOUR_RGB( '', 0.689999997600000, 0.689999997600000, 0.689999997600000 );
#288 = CARTESIAN_POINT( '', ( 257.950000000000, 7.50000000000000, 0.000000000000000 ) );
#289 = AXIS2_PLACEMENT_3D( '', #340, #341, #342 );
#290 = CARTESIAN_POINT( '', ( 255.950000000000, 7.50000000000000, 2.00000000000000 ) );
#291 = AXIS2_PLACEMENT_3D( '', #343, #344, #345 );
#292 = COLOUR_RGB( '', 0.689999997600000, 0.689999997600000, 0.689999997600000 );
#293 = CARTESIAN_POINT( '', ( 510.000000000000, 0.000000000000000, 0.000000000000000 ) );
#294 = CARTESIAN_POINT( '', ( 510.000000000000, 15.0000000000000, 0.000000000000000 ) );
#295 = CARTESIAN_POINT( '', ( 510.000000000000, 0.000000000000000, 0.000000000000000 ) );
#296 = VECTOR( '', #346, 1000.00000000000 );
#297 = CARTESIAN_POINT( '', ( 510.000000000000, 15.0000000000000, 2.00000000000000 ) );
#298 = CARTESIAN_POINT( '', ( 510.000000000000, 15.0000000000000, 2.00000000000000 ) );
#299 = VECTOR( '', #347, 1000.00000000000 );
#300 = CARTESIAN_POINT( '', ( 510.000000000000, 0.000000000000000, 2.00000000000000 ) );
#301 = CARTESIAN_POINT( '', ( 510.000000000000, 0.000000000000000, 2.00000000000000 ) );
#302 = VECTOR( '', #348, 1000.00000000000 );
#303 = CARTESIAN_POINT( '', ( 510.000000000000, 0.000000000000000, 2.00000000000000 ) );
#304 = VECTOR( '', #349, 1000.00000000000 );
#305 = COLOUR_RGB( '', 0.689999997600000, 0.689999997600000, 0.689999997600000 );
#306 = CARTESIAN_POINT( '', ( 487.950000000000, 7.50000000000000, 0.000000000000000 ) );
#307 = AXIS2_PLACEMENT_3D( '', #350, #351, #352 );
#308 = CARTESIAN_POINT( '', ( 7.95000000000000, 7.50000000000000, 0.000000000000000 ) );
#309 = AXIS2_PLACEMENT_3D( '', #353, #354, #355 );
#310 = CARTESIAN_POINT( '', ( 0.000000000000000, 15.0000000000000, 0.000000000000000 ) );
#311 = CARTESIAN_POINT( '', ( 510.000000000000, 15.0000000000000, 0.000000000000000 ) );
#312 = VECTOR( '', #356, 1000.00000000000 );
#313 = CARTESIAN_POINT( '', ( 0.000000000000000, 0.000000000000000, 0.000000000000000 ) );
#314 = CARTESIAN_POINT( '', ( 0.000000000000000, 0.000000000000000, 0.000000000000000 ) );
#315 = VECTOR( '', #357, 1000.00000000000 );
#316 = CARTESIAN_POINT( '', ( 0.000000000000000, 15.0000000000000, 0.000000000000000 ) );
#317 = VECTOR( '', #358, 1000.00000000000 );
#318 = COLOUR_RGB( '', 0.689999997600000, 0.689999997600000, 0.689999997600000 );
#319 = CARTESIAN_POINT( '', ( 485.950000000000, 7.50000000000000, 2.00000000000000 ) );
#320 = AXIS2_PLACEMENT_3D( '', #359, #360, #361 );
#321 = CARTESIAN_POINT( '', ( 5.95000000000000, 7.50000000000000, 2.00000000000000 ) );
#322 = AXIS2_PLACEMENT_3D( '', #362, #363, #364 );
#323 = CARTESIAN_POINT( '', ( 0.000000000000000, 15.0000000000000, 2.00000000000000 ) );
#324 = CARTESIAN_POINT( '', ( 510.000000000000, 15.0000000000000, 2.00000000000000 ) );
#325 = VECTOR( '', #365, 1000.00000000000 );
#326 = CARTESIAN_POINT( '', ( 0.000000000000000, 0.000000000000000, 2.00000000000000 ) );
#327 = CARTESIAN_POINT( '', ( 0.000000000000000, 15.0000000000000, 2.00000000000000 ) );
#328 = VECTOR( '', #366, 1000.00000000000 );
#329 = CARTESIAN_POINT( '', ( 0.000000000000000, 0.000000000000000, 2.00000000000000 ) );
#330 = VECTOR( '', #367, 1000.00000000000 );
#331 = COLOUR_RGB( '', 0.689999997600000, 0.689999997600000, 0.689999997600000 );
#332 = CARTESIAN_POINT( '', ( 0.000000000000000, 0.000000000000000, 2.00000000000000 ) );
#333 = VECTOR( '', #368, 1000.00000000000 );
#334 = CARTESIAN_POINT( '', ( 0.000000000000000, 15.0000000000000, 2.00000000000000 ) );
#335 = VECTOR( '', #369, 1000.00000000000 );
#336 = COLOUR_RGB( '', 0.689999997600000, 0.689999997600000, 0.689999997600000 );
#337 = COLOUR_RGB( '', 0.689999997600000, 0.689999997600000, 0.689999997600000 );
#338 = COLOUR_RGB( '', 0.689999997600000, 0.689999997600000, 0.689999997600000 );
#339 = COLOUR_RGB( '', 0.689999997600000, 0.689999997600000, 0.689999997600000 );
#340 = CARTESIAN_POINT( '', ( 260.000000000000, 7.50000000000000, 0.000000000000000 ) );
#341 = DIRECTION( '', ( -0.000000000000000, 0.000000000000000, -1.00000000000000 ) );
#342 = DIRECTION( '', ( -1.00000000000000, 0.000000000000000, 0.000000000000000 ) );
#343 = CARTESIAN_POINT( '', ( 260.000000000000, 7.50000000000000, 2.00000000000000 ) );
#344 = DIRECTION( '', ( -0.000000000000000, 0.000000000000000, -1.00000000000000 ) );
#345 = DIRECTION( '', ( -1.00000000000000, 0.000000000000000, 0.000000000000000 ) );
#346 = DIRECTION( '', ( 0.000000000000000, 1.00000000000000, 0.000000000000000 ) );
#347 = DIRECTION( '', ( -0.000000000000000, -0.000000000000000, -1.00000000000000 ) );
#348 = DIRECTION( '', ( 0.000000000000000, 1.00000000000000, 0.000000000000000 ) );
#349 = DIRECTION( '', ( -0.000000000000000, -0.000000000000000, -1.00000000000000 ) );
#350 = CARTESIAN_POINT( '', ( 490.000000000000, 7.50000000000000, 0.000000000000000 ) );
#351 = DIRECTION( '', ( -0.000000000000000, 0.000000000000000, -1.00000000000000 ) );
#352 = DIRECTION( '', ( -1.00000000000000, 0.000000000000000, 0.000000000000000 ) );
#353 = CARTESIAN_POINT( '', ( 10.0000000000000, 7.50000000000000, 0.000000000000000 ) );
#354 = DIRECTION( '', ( -0.000000000000000, 0.000000000000000, -1.00000000000000 ) );
#355 = DIRECTION( '', ( -1.00000000000000, 0.000000000000000, 0.000000000000000 ) );
#356 = DIRECTION( '', ( -1.00000000000000, 0.000000000000000, 0.000000000000000 ) );
#357 = DIRECTION( '', ( 1.00000000000000, 0.000000000000000, 0.000000000000000 ) );
#358 = DIRECTION( '', ( 0.000000000000000, -1.00000000000000, 0.000000000000000 ) );
#359 = CARTESIAN_POINT( '', ( 490.000000000000, 7.50000000000000, 2.00000000000000 ) );
#360 = DIRECTION( '', ( -0.000000000000000, 0.000000000000000, -1.00000000000000 ) );
#361 = DIRECTION( '', ( -1.00000000000000, 0.000000000000000, 0.000000000000000 ) );
#362 = CARTESIAN_POINT( '', ( 10.0000000000000, 7.50000000000000, 2.00000000000000 ) );
#363 = DIRECTION( '', ( -0.000000000000000, 0.000000000000000, -1.00000000000000 ) );
#364 = DIRECTION( '', ( -1.00000000000000, 0.000000000000000, 0.000000000000000 ) );
#365 = DIRECTION( '', ( -1.00000000000000, 0.000000000000000, 0.000000000000000 ) );
#366 = DIRECTION( '', ( 0.000000000000000, -1.00000000000000, 0.000000000000000 ) );
#367 = DIRECTION( '', ( 1.00000000000000, 0.000000000000000, 0.000000000000000 ) );
#368 = DIRECTION( '', ( -0.000000000000000, -0.000000000000000, -1.00000000000000 ) );
#369 = DIRECTION( '', ( -0.000000000000000, -0.000000000000000, -1.00000000000000 ) );
ENDSEC;
END-ISO-10303-21;
