ISO-10303-21;
HEADER;
FILE_DESCRIPTION( ( 'STEP AP214' ), '1' );
FILE_NAME( '//goodhand-server/Shared Folders/GoodHand Data/Kipp CAD/K1129/K1129.202015.stp', '2020-12-10T10:17:21', ( '' ), ( '' ), ' ', 'PARTsolutions', ' ' );
FILE_SCHEMA( ( 'AUTOMOTIVE_DESIGN { 1 0 10303 214 1 1 1 1 }' ) );
ENDSEC;
DATA;
#1 = MECHANICAL_DESIGN_GEOMETRIC_PRESENTATION_REPRESENTATION( ' ', ( #10, #11, #12, #13, #14, #15, #16, #17, #18, #19, #20, #21 ), #6 );
#2 = PRODUCT_DEFINITION_CONTEXT( '', #22, 'design' );
#3 = APPLICATION_PROTOCOL_DEFINITION( 'international standard', 'automotive_design', 2001, #22 );
#4 = PRODUCT_CATEGORY_RELATIONSHIP( 'NONE', 'NONE', #23, #24 );
#5 = SHAPE_DEFINITION_REPRESENTATION( #25, #26 );
#6 =  ( GEOMETRIC_REPRESENTATION_CONTEXT( 3 )GLOBAL_UNCERTAINTY_ASSIGNED_CONTEXT( ( #29 ) )GLOBAL_UNIT_ASSIGNED_CONTEXT( ( #31, #32, #33 ) )REPRESENTATION_CONTEXT( 'NONE', 'WORKSPACE' ) );
#10 = STYLED_ITEM( '', ( #35 ), #36 );
#11 = STYLED_ITEM( '', ( #37 ), #38 );
#12 = STYLED_ITEM( '', ( #39 ), #40 );
#13 = STYLED_ITEM( '', ( #41 ), #42 );
#14 = STYLED_ITEM( '', ( #43 ), #44 );
#15 = STYLED_ITEM( '', ( #45 ), #46 );
#16 = STYLED_ITEM( '', ( #47 ), #48 );
#17 = STYLED_ITEM( '', ( #49 ), #50 );
#18 = STYLED_ITEM( '', ( #51 ), #52 );
#19 = STYLED_ITEM( '', ( #53 ), #54 );
#20 = STYLED_ITEM( '', ( #55 ), #56 );
#21 = STYLED_ITEM( '', ( #57 ), #58 );
#22 = APPLICATION_CONTEXT( 'core data for automotive mechanical design processes' );
#23 = PRODUCT_CATEGORY( 'part', 'NONE' );
#24 = PRODUCT_RELATED_PRODUCT_CATEGORY( 'detail', ' ', ( #59 ) );
#25 = PRODUCT_DEFINITION_SHAPE( 'NONE', 'NONE', #60 );
#26 = ADVANCED_BREP_SHAPE_REPRESENTATION( '_K1129.202015', ( #61, #62 ), #6 );
#29 = UNCERTAINTY_MEASURE_WITH_UNIT( LENGTH_MEASURE( 0.00100000000000000 ), #31, '', '' );
#31 =  ( CONVERSION_BASED_UNIT( 'MILLIMETRE', #65 )LENGTH_UNIT(  )NAMED_UNIT( #68 ) );
#32 =  ( NAMED_UNIT( #70 )PLANE_ANGLE_UNIT(  )SI_UNIT( $, .RADIAN. ) );
#33 =  ( NAMED_UNIT( #70 )SI_UNIT( $, .STERADIAN. )SOLID_ANGLE_UNIT(  ) );
#35 = PRESENTATION_STYLE_ASSIGNMENT( ( #76 ) );
#36 = ADVANCED_FACE( '', ( #77 ), #78, .T. );
#37 = PRESENTATION_STYLE_ASSIGNMENT( ( #79 ) );
#38 = ADVANCED_FACE( '', ( #80 ), #81, .T. );
#39 = PRESENTATION_STYLE_ASSIGNMENT( ( #82 ) );
#40 = ADVANCED_FACE( '', ( #83 ), #84, .T. );
#41 = PRESENTATION_STYLE_ASSIGNMENT( ( #85 ) );
#42 = ADVANCED_FACE( '', ( #86, #87 ), #88, .F. );
#43 = PRESENTATION_STYLE_ASSIGNMENT( ( #89 ) );
#44 = ADVANCED_FACE( '', ( #90 ), #91, .F. );
#45 = PRESENTATION_STYLE_ASSIGNMENT( ( #92 ) );
#46 = ADVANCED_FACE( '', ( #93, #94 ), #95, .T. );
#47 = PRESENTATION_STYLE_ASSIGNMENT( ( #96 ) );
#48 = ADVANCED_FACE( '', ( #97 ), #98, .T. );
#49 = PRESENTATION_STYLE_ASSIGNMENT( ( #99 ) );
#50 = ADVANCED_FACE( '', ( #100, #101 ), #102, .T. );
#51 = PRESENTATION_STYLE_ASSIGNMENT( ( #103 ) );
#52 = ADVANCED_FACE( '', ( #104 ), #105, .T. );
#53 = PRESENTATION_STYLE_ASSIGNMENT( ( #106 ) );
#54 = ADVANCED_FACE( '', ( #107, #108 ), #109, .T. );
#55 = PRESENTATION_STYLE_ASSIGNMENT( ( #110 ) );
#56 = ADVANCED_FACE( '', ( #111 ), #112, .T. );
#57 = PRESENTATION_STYLE_ASSIGNMENT( ( #113 ) );
#58 = ADVANCED_FACE( '', ( #114 ), #115, .F. );
#59 = PRODUCT( '_K1129.202015', '_K1129.202015', 'PART-_K1129.202015-DESC', ( #116 ) );
#60 = PRODUCT_DEFINITION( 'NONE', 'NONE', #117, #2 );
#61 = MANIFOLD_SOLID_BREP( '_K1129.202015', #118 );
#62 = AXIS2_PLACEMENT_3D( '', #119, #120, #121 );
#65 = LENGTH_MEASURE_WITH_UNIT( LENGTH_MEASURE( 1.00000000000000 ), #122 );
#68 = DIMENSIONAL_EXPONENTS( 1.00000000000000, 0.000000000000000, 0.000000000000000, 0.000000000000000, 0.000000000000000, 0.000000000000000, 0.000000000000000 );
#70 = DIMENSIONAL_EXPONENTS( 0.000000000000000, 0.000000000000000, 0.000000000000000, 0.000000000000000, 0.000000000000000, 0.000000000000000, 0.000000000000000 );
#76 = SURFACE_STYLE_USAGE( .BOTH., #123 );
#77 = FACE_OUTER_BOUND( '', #124, .T. );
#78 = PLANE( '', #125 );
#79 = SURFACE_STYLE_USAGE( .BOTH., #126 );
#80 = FACE_OUTER_BOUND( '', #127, .T. );
#81 = PLANE( '', #128 );
#82 = SURFACE_STYLE_USAGE( .BOTH., #129 );
#83 = FACE_OUTER_BOUND( '', #130, .T. );
#84 = PLANE( '', #131 );
#85 = SURFACE_STYLE_USAGE( .BOTH., #132 );
#86 = FACE_OUTER_BOUND( '', #133, .T. );
#87 = FACE_BOUND( '', #134, .T. );
#88 = PLANE( '', #135 );
#89 = SURFACE_STYLE_USAGE( .BOTH., #136 );
#90 = FACE_OUTER_BOUND( '', #137, .T. );
#91 = PLANE( '', #138 );
#92 = SURFACE_STYLE_USAGE( .BOTH., #139 );
#93 = FACE_BOUND( '', #140, .T. );
#94 = FACE_OUTER_BOUND( '', #141, .T. );
#95 = CONICAL_SURFACE( '', #142, 10.1414259507000, 0.0314159265000000 );
#96 = SURFACE_STYLE_USAGE( .BOTH., #143 );
#97 = FACE_OUTER_BOUND( '', #144, .T. );
#98 = PLANE( '', #145 );
#99 = SURFACE_STYLE_USAGE( .BOTH., #146 );
#100 = FACE_BOUND( '', #147, .T. );
#101 = FACE_OUTER_BOUND( '', #148, .T. );
#102 = CONICAL_SURFACE( '', #149, 9.85857404930000, 0.801106126700000 );
#103 = SURFACE_STYLE_USAGE( .BOTH., #150 );
#104 = FACE_OUTER_BOUND( '', #151, .T. );
#105 = PLANE( '', #152 );
#106 = SURFACE_STYLE_USAGE( .BOTH., #153 );
#107 = FACE_OUTER_BOUND( '', #154, .T. );
#108 = FACE_BOUND( '', #155, .T. );
#109 = CONICAL_SURFACE( '', #156, 9.65713133020000, 0.769690200100000 );
#110 = SURFACE_STYLE_USAGE( .BOTH., #157 );
#111 = FACE_OUTER_BOUND( '', #158, .T. );
#112 = PLANE( '', #159 );
#113 = SURFACE_STYLE_USAGE( .BOTH., #160 );
#114 = FACE_OUTER_BOUND( '', #161, .T. );
#115 = PLANE( '', #162 );
#116 = PRODUCT_CONTEXT( '', #22, 'mechanical' );
#117 = PRODUCT_DEFINITION_FORMATION_WITH_SPECIFIED_SOURCE( ' ', 'NONE', #59, .NOT_KNOWN. );
#118 = CLOSED_SHELL( '', ( #54, #42, #38, #40, #36, #44, #50, #46, #56, #52, #48, #58 ) );
#119 = CARTESIAN_POINT( '', ( 0.000000000000000, 0.000000000000000, 0.000000000000000 ) );
#120 = DIRECTION( '', ( 0.000000000000000, 0.000000000000000, 1.00000000000000 ) );
#121 = DIRECTION( '', ( 1.00000000000000, 0.000000000000000, 0.000000000000000 ) );
#122 =  ( LENGTH_UNIT(  )NAMED_UNIT( #68 )SI_UNIT( .MILLI., .METRE. ) );
#123 = SURFACE_SIDE_STYLE( '', ( #164 ) );
#124 = EDGE_LOOP( '', ( #165, #166, #167, #168 ) );
#125 = AXIS2_PLACEMENT_3D( '', #169, #170, #171 );
#126 = SURFACE_SIDE_STYLE( '', ( #172 ) );
#127 = EDGE_LOOP( '', ( #173, #174, #175, #176 ) );
#128 = AXIS2_PLACEMENT_3D( '', #177, #178, #179 );
#129 = SURFACE_SIDE_STYLE( '', ( #180 ) );
#130 = EDGE_LOOP( '', ( #181, #182, #183, #184 ) );
#131 = AXIS2_PLACEMENT_3D( '', #185, #186, #187 );
#132 = SURFACE_SIDE_STYLE( '', ( #188 ) );
#133 = EDGE_LOOP( '', ( #189 ) );
#134 = EDGE_LOOP( '', ( #190, #191, #192, #193, #194, #195 ) );
#135 = AXIS2_PLACEMENT_3D( '', #196, #197, #198 );
#136 = SURFACE_SIDE_STYLE( '', ( #199 ) );
#137 = EDGE_LOOP( '', ( #200 ) );
#138 = AXIS2_PLACEMENT_3D( '', #201, #202, #203 );
#139 = SURFACE_SIDE_STYLE( '', ( #204 ) );
#140 = EDGE_LOOP( '', ( #205 ) );
#141 = EDGE_LOOP( '', ( #206 ) );
#142 = AXIS2_PLACEMENT_3D( '', #207, #208, #209 );
#143 = SURFACE_SIDE_STYLE( '', ( #210 ) );
#144 = EDGE_LOOP( '', ( #211, #212, #213, #214 ) );
#145 = AXIS2_PLACEMENT_3D( '', #215, #216, #217 );
#146 = SURFACE_SIDE_STYLE( '', ( #218 ) );
#147 = EDGE_LOOP( '', ( #219 ) );
#148 = EDGE_LOOP( '', ( #220 ) );
#149 = AXIS2_PLACEMENT_3D( '', #221, #222, #223 );
#150 = SURFACE_SIDE_STYLE( '', ( #224 ) );
#151 = EDGE_LOOP( '', ( #225, #226, #227, #228 ) );
#152 = AXIS2_PLACEMENT_3D( '', #229, #230, #231 );
#153 = SURFACE_SIDE_STYLE( '', ( #232 ) );
#154 = EDGE_LOOP( '', ( #233 ) );
#155 = EDGE_LOOP( '', ( #234 ) );
#156 = AXIS2_PLACEMENT_3D( '', #235, #236, #237 );
#157 = SURFACE_SIDE_STYLE( '', ( #238 ) );
#158 = EDGE_LOOP( '', ( #239, #240, #241, #242 ) );
#159 = AXIS2_PLACEMENT_3D( '', #243, #244, #245 );
#160 = SURFACE_SIDE_STYLE( '', ( #246 ) );
#161 = EDGE_LOOP( '', ( #247, #248, #249, #250, #251, #252 ) );
#162 = AXIS2_PLACEMENT_3D( '', #253, #254, #255 );
#164 = SURFACE_STYLE_FILL_AREA( #256 );
#165 = ORIENTED_EDGE( '', *, *, #257, .F. );
#166 = ORIENTED_EDGE( '', *, *, #258, .F. );
#167 = ORIENTED_EDGE( '', *, *, #259, .T. );
#168 = ORIENTED_EDGE( '', *, *, #260, .T. );
#169 = CARTESIAN_POINT( '', ( 5.00000000000000, 2.88675134594813, 5.00000000000000 ) );
#170 = DIRECTION( '', ( 0.000000000000000, 0.000000000000000, -1.00000000000000 ) );
#171 = DIRECTION( '', ( -1.00000000000000, 0.000000000000000, 0.000000000000000 ) );
#172 = SURFACE_STYLE_FILL_AREA( #261 );
#173 = ORIENTED_EDGE( '', *, *, #262, .F. );
#174 = ORIENTED_EDGE( '', *, *, #260, .F. );
#175 = ORIENTED_EDGE( '', *, *, #263, .T. );
#176 = ORIENTED_EDGE( '', *, *, #264, .T. );
#177 = CARTESIAN_POINT( '', ( 5.00000000000000, -2.88675134594813, 5.00000000000000 ) );
#178 = DIRECTION( '', ( 0.000000000000000, 0.866025403784439, -0.500000000000000 ) );
#179 = DIRECTION( '', ( 0.000000000000000, 0.500000000000000, 0.866025403784439 ) );
#180 = SURFACE_STYLE_FILL_AREA( #265 );
#181 = ORIENTED_EDGE( '', *, *, #266, .F. );
#182 = ORIENTED_EDGE( '', *, *, #264, .F. );
#183 = ORIENTED_EDGE( '', *, *, #267, .T. );
#184 = ORIENTED_EDGE( '', *, *, #268, .T. );
#185 = CARTESIAN_POINT( '', ( 5.00000000000000, -5.77350269189626, 0.000000000000000 ) );
#186 = DIRECTION( '', ( -0.000000000000000, 0.866025403784439, 0.500000000000000 ) );
#187 = DIRECTION( '', ( 0.000000000000000, -0.500000000000000, 0.866025403784439 ) );
#188 = SURFACE_STYLE_FILL_AREA( #269 );
#189 = ORIENTED_EDGE( '', *, *, #270, .F. );
#190 = ORIENTED_EDGE( '', *, *, #257, .T. );
#191 = ORIENTED_EDGE( '', *, *, #262, .T. );
#192 = ORIENTED_EDGE( '', *, *, #266, .T. );
#193 = ORIENTED_EDGE( '', *, *, #271, .T. );
#194 = ORIENTED_EDGE( '', *, *, #272, .T. );
#195 = ORIENTED_EDGE( '', *, *, #273, .T. );
#196 = CARTESIAN_POINT( '', ( 0.000000000000000, 0.000000000000000, 0.000000000000000 ) );
#197 = DIRECTION( '', ( 1.00000000000000, 0.000000000000000, -0.000000000000000 ) );
#198 = DIRECTION( '', ( -0.000000000000000, 0.000000000000000, -1.00000000000000 ) );
#199 = SURFACE_STYLE_FILL_AREA( #274 );
#200 = ORIENTED_EDGE( '', *, *, #275, .T. );
#201 = CARTESIAN_POINT( '', ( 10.0000000000000, 9.34286866978324, 0.000000000000000 ) );
#202 = DIRECTION( '', ( -1.00000000000000, 0.000000000000000, 0.000000000000000 ) );
#203 = DIRECTION( '', ( 0.000000000000000, 0.000000000000000, 1.00000000000000 ) );
#204 = SURFACE_STYLE_FILL_AREA( #276 );
#205 = ORIENTED_EDGE( '', *, *, #277, .F. );
#206 = ORIENTED_EDGE( '', *, *, #278, .T. );
#207 = CARTESIAN_POINT( '', ( 0.499753280182865, 0.000000000000000, 0.000000000000000 ) );
#208 = DIRECTION( '', ( -1.00000000000000, 0.000000000000000, -0.000000000000000 ) );
#209 = DIRECTION( '', ( 0.000000000000000, 0.000000000000000, 1.00000000000000 ) );
#210 = SURFACE_STYLE_FILL_AREA( #279 );
#211 = ORIENTED_EDGE( '', *, *, #273, .F. );
#212 = ORIENTED_EDGE( '', *, *, #280, .F. );
#213 = ORIENTED_EDGE( '', *, *, #281, .T. );
#214 = ORIENTED_EDGE( '', *, *, #258, .T. );
#215 = CARTESIAN_POINT( '', ( 5.00000000000000, 5.77350269189626, 0.000000000000000 ) );
#216 = DIRECTION( '', ( 0.000000000000000, -0.866025403784439, -0.500000000000000 ) );
#217 = DIRECTION( '', ( 0.000000000000000, 0.500000000000000, -0.866025403784439 ) );
#218 = SURFACE_STYLE_FILL_AREA( #282 );
#219 = ORIENTED_EDGE( '', *, *, #275, .F. );
#220 = ORIENTED_EDGE( '', *, *, #277, .T. );
#221 = CARTESIAN_POINT( '', ( 9.50024671981713, 0.000000000000000, 0.000000000000000 ) );
#222 = DIRECTION( '', ( -1.00000000000000, 0.000000000000000, -0.000000000000000 ) );
#223 = DIRECTION( '', ( 0.000000000000000, 0.000000000000000, 1.00000000000000 ) );
#224 = SURFACE_STYLE_FILL_AREA( #283 );
#225 = ORIENTED_EDGE( '', *, *, #272, .F. );
#226 = ORIENTED_EDGE( '', *, *, #284, .F. );
#227 = ORIENTED_EDGE( '', *, *, #285, .T. );
#228 = ORIENTED_EDGE( '', *, *, #280, .T. );
#229 = CARTESIAN_POINT( '', ( 5.00000000000000, 2.88675134594813, -5.00000000000000 ) );
#230 = DIRECTION( '', ( 0.000000000000000, -0.866025403784439, 0.500000000000000 ) );
#231 = DIRECTION( '', ( 0.000000000000000, -0.500000000000000, -0.866025403784439 ) );
#232 = SURFACE_STYLE_FILL_AREA( #286 );
#233 = ORIENTED_EDGE( '', *, *, #278, .F. );
#234 = ORIENTED_EDGE( '', *, *, #270, .T. );
#235 = CARTESIAN_POINT( '', ( 0.000000000000000, 0.000000000000000, 0.000000000000000 ) );
#236 = DIRECTION( '', ( 1.00000000000000, -0.000000000000000, -0.000000000000000 ) );
#237 = DIRECTION( '', ( -0.000000000000000, 0.000000000000000, -1.00000000000000 ) );
#238 = SURFACE_STYLE_FILL_AREA( #287 );
#239 = ORIENTED_EDGE( '', *, *, #271, .F. );
#240 = ORIENTED_EDGE( '', *, *, #268, .F. );
#241 = ORIENTED_EDGE( '', *, *, #288, .T. );
#242 = ORIENTED_EDGE( '', *, *, #284, .T. );
#243 = CARTESIAN_POINT( '', ( 5.00000000000000, -2.88675134594813, -5.00000000000000 ) );
#244 = DIRECTION( '', ( 0.000000000000000, 0.000000000000000, 1.00000000000000 ) );
#245 = DIRECTION( '', ( 1.00000000000000, 0.000000000000000, -0.000000000000000 ) );
#246 = SURFACE_STYLE_FILL_AREA( #289 );
#247 = ORIENTED_EDGE( '', *, *, #259, .F. );
#248 = ORIENTED_EDGE( '', *, *, #281, .F. );
#249 = ORIENTED_EDGE( '', *, *, #285, .F. );
#250 = ORIENTED_EDGE( '', *, *, #288, .F. );
#251 = ORIENTED_EDGE( '', *, *, #267, .F. );
#252 = ORIENTED_EDGE( '', *, *, #263, .F. );
#253 = CARTESIAN_POINT( '', ( 5.00000000000000, 0.000000000000000, 0.000000000000000 ) );
#254 = DIRECTION( '', ( 1.00000000000000, 0.000000000000000, 0.000000000000000 ) );
#255 = DIRECTION( '', ( 0.000000000000000, 0.000000000000000, -1.00000000000000 ) );
#256 = FILL_AREA_STYLE( '', ( #290 ) );
#257 = EDGE_CURVE( '', #291, #292, #293, .T. );
#258 = EDGE_CURVE( '', #294, #291, #295, .T. );
#259 = EDGE_CURVE( '', #294, #296, #297, .T. );
#260 = EDGE_CURVE( '', #296, #292, #298, .T. );
#261 = FILL_AREA_STYLE( '', ( #299 ) );
#262 = EDGE_CURVE( '', #292, #300, #301, .T. );
#263 = EDGE_CURVE( '', #296, #302, #303, .T. );
#264 = EDGE_CURVE( '', #302, #300, #304, .T. );
#265 = FILL_AREA_STYLE( '', ( #305 ) );
#266 = EDGE_CURVE( '', #300, #306, #307, .T. );
#267 = EDGE_CURVE( '', #302, #308, #309, .T. );
#268 = EDGE_CURVE( '', #308, #306, #310, .T. );
#269 = FILL_AREA_STYLE( '', ( #311 ) );
#270 = EDGE_CURVE( '', #312, #312, #313, .T. );
#271 = EDGE_CURVE( '', #306, #314, #315, .T. );
#272 = EDGE_CURVE( '', #314, #316, #317, .T. );
#273 = EDGE_CURVE( '', #316, #291, #318, .T. );
#274 = FILL_AREA_STYLE( '', ( #319 ) );
#275 = EDGE_CURVE( '', #320, #320, #321, .T. );
#276 = FILL_AREA_STYLE( '', ( #322 ) );
#277 = EDGE_CURVE( '', #323, #323, #324, .T. );
#278 = EDGE_CURVE( '', #325, #325, #326, .T. );
#279 = FILL_AREA_STYLE( '', ( #327 ) );
#280 = EDGE_CURVE( '', #328, #316, #329, .T. );
#281 = EDGE_CURVE( '', #328, #294, #330, .T. );
#282 = FILL_AREA_STYLE( '', ( #331 ) );
#283 = FILL_AREA_STYLE( '', ( #332 ) );
#284 = EDGE_CURVE( '', #333, #314, #334, .T. );
#285 = EDGE_CURVE( '', #333, #328, #335, .T. );
#286 = FILL_AREA_STYLE( '', ( #336 ) );
#287 = FILL_AREA_STYLE( '', ( #337 ) );
#288 = EDGE_CURVE( '', #308, #333, #338, .T. );
#289 = FILL_AREA_STYLE( '', ( #339 ) );
#290 = FILL_AREA_STYLE_COLOUR( '', #340 );
#291 = VERTEX_POINT( '', #341 );
#292 = VERTEX_POINT( '', #342 );
#293 = LINE( '', #343, #344 );
#294 = VERTEX_POINT( '', #345 );
#295 = LINE( '', #346, #347 );
#296 = VERTEX_POINT( '', #348 );
#297 = LINE( '', #349, #350 );
#298 = LINE( '', #351, #352 );
#299 = FILL_AREA_STYLE_COLOUR( '', #353 );
#300 = VERTEX_POINT( '', #354 );
#301 = LINE( '', #355, #356 );
#302 = VERTEX_POINT( '', #357 );
#303 = LINE( '', #358, #359 );
#304 = LINE( '', #360, #361 );
#305 = FILL_AREA_STYLE_COLOUR( '', #362 );
#306 = VERTEX_POINT( '', #363 );
#307 = LINE( '', #364, #365 );
#308 = VERTEX_POINT( '', #366 );
#309 = LINE( '', #367, #368 );
#310 = LINE( '', #369, #370 );
#311 = FILL_AREA_STYLE_COLOUR( '', #371 );
#312 = VERTEX_POINT( '', #372 );
#313 = CIRCLE( '', #373, 9.65713133020000 );
#314 = VERTEX_POINT( '', #374 );
#315 = LINE( '', #375, #376 );
#316 = VERTEX_POINT( '', #377 );
#317 = LINE( '', #378, #379 );
#318 = LINE( '', #380, #381 );
#319 = FILL_AREA_STYLE_COLOUR( '', #382 );
#320 = VERTEX_POINT( '', #383 );
#321 = CIRCLE( '', #384, 9.34286866980000 );
#322 = FILL_AREA_STYLE_COLOUR( '', #385 );
#323 = VERTEX_POINT( '', #386 );
#324 = CIRCLE( '', #387, 9.85857404930000 );
#325 = VERTEX_POINT( '', #388 );
#326 = CIRCLE( '', #389, 10.1414259507000 );
#327 = FILL_AREA_STYLE_COLOUR( '', #390 );
#328 = VERTEX_POINT( '', #391 );
#329 = LINE( '', #392, #393 );
#330 = LINE( '', #394, #395 );
#331 = FILL_AREA_STYLE_COLOUR( '', #396 );
#332 = FILL_AREA_STYLE_COLOUR( '', #397 );
#333 = VERTEX_POINT( '', #398 );
#334 = LINE( '', #399, #400 );
#335 = LINE( '', #401, #402 );
#336 = FILL_AREA_STYLE_COLOUR( '', #403 );
#337 = FILL_AREA_STYLE_COLOUR( '', #404 );
#338 = LINE( '', #405, #406 );
#339 = FILL_AREA_STYLE_COLOUR( '', #407 );
#340 = COLOUR_RGB( '', 0.689999997600000, 0.689999997600000, 0.689999997600000 );
#341 = CARTESIAN_POINT( '', ( 0.000000000000000, 2.88675134594813, 5.00000000000000 ) );
#342 = CARTESIAN_POINT( '', ( 0.000000000000000, -2.88675134594813, 5.00000000000000 ) );
#343 = CARTESIAN_POINT( '', ( 0.000000000000000, 2.88675134594813, 5.00000000000000 ) );
#344 = VECTOR( '', #408, 1000.00000000000 );
#345 = CARTESIAN_POINT( '', ( 5.00000000000000, 2.88675134594813, 5.00000000000000 ) );
#346 = CARTESIAN_POINT( '', ( 5.00000000000000, 2.88675134594813, 5.00000000000000 ) );
#347 = VECTOR( '', #409, 1000.00000000000 );
#348 = CARTESIAN_POINT( '', ( 5.00000000000000, -2.88675134594813, 5.00000000000000 ) );
#349 = CARTESIAN_POINT( '', ( 5.00000000000000, 2.88675134594813, 5.00000000000000 ) );
#350 = VECTOR( '', #410, 1000.00000000000 );
#351 = CARTESIAN_POINT( '', ( 5.00000000000000, -2.88675134594813, 5.00000000000000 ) );
#352 = VECTOR( '', #411, 1000.00000000000 );
#353 = COLOUR_RGB( '', 0.689999997600000, 0.689999997600000, 0.689999997600000 );
#354 = CARTESIAN_POINT( '', ( 0.000000000000000, -5.77350269189626, 0.000000000000000 ) );
#355 = CARTESIAN_POINT( '', ( 0.000000000000000, -2.88675134594813, 5.00000000000000 ) );
#356 = VECTOR( '', #412, 1000.00000000000 );
#357 = CARTESIAN_POINT( '', ( 5.00000000000000, -5.77350269189626, 0.000000000000000 ) );
#358 = CARTESIAN_POINT( '', ( 5.00000000000000, -2.88675134594813, 5.00000000000000 ) );
#359 = VECTOR( '', #413, 1000.00000000000 );
#360 = CARTESIAN_POINT( '', ( 5.00000000000000, -5.77350269189626, 0.000000000000000 ) );
#361 = VECTOR( '', #414, 1000.00000000000 );
#362 = COLOUR_RGB( '', 0.689999997600000, 0.689999997600000, 0.689999997600000 );
#363 = CARTESIAN_POINT( '', ( 0.000000000000000, -2.88675134594813, -5.00000000000000 ) );
#364 = CARTESIAN_POINT( '', ( 0.000000000000000, -5.77350269189626, 0.000000000000000 ) );
#365 = VECTOR( '', #415, 1000.00000000000 );
#366 = CARTESIAN_POINT( '', ( 5.00000000000000, -2.88675134594813, -5.00000000000000 ) );
#367 = CARTESIAN_POINT( '', ( 5.00000000000000, -5.77350269189626, 0.000000000000000 ) );
#368 = VECTOR( '', #416, 1000.00000000000 );
#369 = CARTESIAN_POINT( '', ( 5.00000000000000, -2.88675134594813, -5.00000000000000 ) );
#370 = VECTOR( '', #417, 1000.00000000000 );
#371 = COLOUR_RGB( '', 0.689999997600000, 0.689999997600000, 0.689999997600000 );
#372 = CARTESIAN_POINT( '', ( 0.000000000000000, 0.000000000000000, -9.65713133021676 ) );
#373 = AXIS2_PLACEMENT_3D( '', #418, #419, #420 );
#374 = CARTESIAN_POINT( '', ( 0.000000000000000, 2.88675134594813, -5.00000000000000 ) );
#375 = CARTESIAN_POINT( '', ( 0.000000000000000, -2.88675134594813, -5.00000000000000 ) );
#376 = VECTOR( '', #421, 1000.00000000000 );
#377 = CARTESIAN_POINT( '', ( 0.000000000000000, 5.77350269189626, 0.000000000000000 ) );
#378 = CARTESIAN_POINT( '', ( 0.000000000000000, 2.88675134594813, -5.00000000000000 ) );
#379 = VECTOR( '', #422, 1000.00000000000 );
#380 = CARTESIAN_POINT( '', ( 0.000000000000000, 5.77350269189626, 0.000000000000000 ) );
#381 = VECTOR( '', #423, 1000.00000000000 );
#382 = COLOUR_RGB( '', 0.689999997600000, 0.689999997600000, 0.689999997600000 );
#383 = CARTESIAN_POINT( '', ( 10.0000000000000, 0.000000000000000, -9.34286866978324 ) );
#384 = AXIS2_PLACEMENT_3D( '', #424, #425, #426 );
#385 = COLOUR_RGB( '', 0.689999997600000, 0.689999997600000, 0.689999997600000 );
#386 = CARTESIAN_POINT( '', ( 9.50024671981713, 0.000000000000000, -9.85857404932231 ) );
#387 = AXIS2_PLACEMENT_3D( '', #427, #428, #429 );
#388 = CARTESIAN_POINT( '', ( 0.499753280182865, 0.000000000000000, -10.1414259506777 ) );
#389 = AXIS2_PLACEMENT_3D( '', #430, #431, #432 );
#390 = COLOUR_RGB( '', 0.689999997600000, 0.689999997600000, 0.689999997600000 );
#391 = CARTESIAN_POINT( '', ( 5.00000000000000, 5.77350269189626, 0.000000000000000 ) );
#392 = CARTESIAN_POINT( '', ( 5.00000000000000, 5.77350269189626, 0.000000000000000 ) );
#393 = VECTOR( '', #433, 1000.00000000000 );
#394 = CARTESIAN_POINT( '', ( 5.00000000000000, 5.77350269189626, 0.000000000000000 ) );
#395 = VECTOR( '', #434, 1000.00000000000 );
#396 = COLOUR_RGB( '', 0.689999997600000, 0.689999997600000, 0.689999997600000 );
#397 = COLOUR_RGB( '', 0.689999997600000, 0.689999997600000, 0.689999997600000 );
#398 = CARTESIAN_POINT( '', ( 5.00000000000000, 2.88675134594813, -5.00000000000000 ) );
#399 = CARTESIAN_POINT( '', ( 5.00000000000000, 2.88675134594813, -5.00000000000000 ) );
#400 = VECTOR( '', #435, 1000.00000000000 );
#401 = CARTESIAN_POINT( '', ( 5.00000000000000, 2.88675134594813, -5.00000000000000 ) );
#402 = VECTOR( '', #436, 1000.00000000000 );
#403 = COLOUR_RGB( '', 0.689999997600000, 0.689999997600000, 0.689999997600000 );
#404 = COLOUR_RGB( '', 0.689999997600000, 0.689999997600000, 0.689999997600000 );
#405 = CARTESIAN_POINT( '', ( 5.00000000000000, -2.88675134594813, -5.00000000000000 ) );
#406 = VECTOR( '', #437, 1000.00000000000 );
#407 = COLOUR_RGB( '', 0.689999997600000, 0.689999997600000, 0.689999997600000 );
#408 = DIRECTION( '', ( 0.000000000000000, -1.00000000000000, 0.000000000000000 ) );
#409 = DIRECTION( '', ( -1.00000000000000, -0.000000000000000, -0.000000000000000 ) );
#410 = DIRECTION( '', ( 0.000000000000000, -1.00000000000000, 0.000000000000000 ) );
#411 = DIRECTION( '', ( -1.00000000000000, -0.000000000000000, -0.000000000000000 ) );
#412 = DIRECTION( '', ( 0.000000000000000, -0.500000000000000, -0.866025403784439 ) );
#413 = DIRECTION( '', ( 0.000000000000000, -0.500000000000000, -0.866025403784439 ) );
#414 = DIRECTION( '', ( -1.00000000000000, -0.000000000000000, -0.000000000000000 ) );
#415 = DIRECTION( '', ( 0.000000000000000, 0.500000000000000, -0.866025403784439 ) );
#416 = DIRECTION( '', ( 0.000000000000000, 0.500000000000000, -0.866025403784439 ) );
#417 = DIRECTION( '', ( -1.00000000000000, -0.000000000000000, -0.000000000000000 ) );
#418 = CARTESIAN_POINT( '', ( 0.000000000000000, 0.000000000000000, 0.000000000000000 ) );
#419 = DIRECTION( '', ( 1.00000000000000, 0.000000000000000, -0.000000000000000 ) );
#420 = DIRECTION( '', ( -0.000000000000000, 0.000000000000000, -1.00000000000000 ) );
#421 = DIRECTION( '', ( 0.000000000000000, 1.00000000000000, 0.000000000000000 ) );
#422 = DIRECTION( '', ( 0.000000000000000, 0.500000000000000, 0.866025403784439 ) );
#423 = DIRECTION( '', ( 0.000000000000000, -0.500000000000000, 0.866025403784439 ) );
#424 = CARTESIAN_POINT( '', ( 10.0000000000000, 0.000000000000000, 0.000000000000000 ) );
#425 = DIRECTION( '', ( 1.00000000000000, 0.000000000000000, -0.000000000000000 ) );
#426 = DIRECTION( '', ( -0.000000000000000, 0.000000000000000, -1.00000000000000 ) );
#427 = CARTESIAN_POINT( '', ( 9.50024671981713, 0.000000000000000, 0.000000000000000 ) );
#428 = DIRECTION( '', ( 1.00000000000000, 0.000000000000000, -0.000000000000000 ) );
#429 = DIRECTION( '', ( -0.000000000000000, 0.000000000000000, -1.00000000000000 ) );
#430 = CARTESIAN_POINT( '', ( 0.499753280182865, 0.000000000000000, 0.000000000000000 ) );
#431 = DIRECTION( '', ( 1.00000000000000, 0.000000000000000, -0.000000000000000 ) );
#432 = DIRECTION( '', ( -0.000000000000000, 0.000000000000000, -1.00000000000000 ) );
#433 = DIRECTION( '', ( -1.00000000000000, -0.000000000000000, -0.000000000000000 ) );
#434 = DIRECTION( '', ( 0.000000000000000, -0.500000000000000, 0.866025403784439 ) );
#435 = DIRECTION( '', ( -1.00000000000000, -0.000000000000000, -0.000000000000000 ) );
#436 = DIRECTION( '', ( 0.000000000000000, 0.500000000000000, 0.866025403784439 ) );
#437 = DIRECTION( '', ( 0.000000000000000, 1.00000000000000, 0.000000000000000 ) );
ENDSEC;
END-ISO-10303-21;
