ISO-10303-21;
HEADER;
FILE_DESCRIPTION( ( 'STEP AP214' ), '1' );
FILE_NAME( '//goodhand-server/Shared Folders/GoodHand Data/Kipp CAD/K0334/K0334.205_0.stp', '2020-12-03T09:01:02', ( '' ), ( '' ), ' ', 'PARTsolutions', ' ' );
FILE_SCHEMA( ( 'AUTOMOTIVE_DESIGN { 1 0 10303 214 1 1 1 1 }' ) );
ENDSEC;
DATA;
#1 = MECHANICAL_DESIGN_GEOMETRIC_PRESENTATION_REPRESENTATION( ' ', ( #10, #11, #12, #13, #14, #15, #16, #17, #18, #19, #20 ), #6 );
#2 = PRODUCT_DEFINITION_CONTEXT( '', #21, 'design' );
#3 = APPLICATION_PROTOCOL_DEFINITION( 'international standard', 'automotive_design', 2001, #21 );
#4 = PRODUCT_CATEGORY_RELATIONSHIP( 'NONE', 'NONE', #22, #23 );
#5 = SHAPE_DEFINITION_REPRESENTATION( #24, #25 );
#6 =  ( GEOMETRIC_REPRESENTATION_CONTEXT( 3 )GLOBAL_UNCERTAINTY_ASSIGNED_CONTEXT( ( #28 ) )GLOBAL_UNIT_ASSIGNED_CONTEXT( ( #30, #31, #32 ) )REPRESENTATION_CONTEXT( 'NONE', 'WORKSPACE' ) );
#10 = STYLED_ITEM( '', ( #34 ), #35 );
#11 = STYLED_ITEM( '', ( #36 ), #37 );
#12 = STYLED_ITEM( '', ( #38 ), #39 );
#13 = STYLED_ITEM( '', ( #40 ), #41 );
#14 = STYLED_ITEM( '', ( #42 ), #43 );
#15 = STYLED_ITEM( '', ( #44 ), #45 );
#16 = STYLED_ITEM( '', ( #46 ), #47 );
#17 = STYLED_ITEM( '', ( #48 ), #49 );
#18 = STYLED_ITEM( '', ( #50 ), #51 );
#19 = STYLED_ITEM( '', ( #52 ), #53 );
#20 = STYLED_ITEM( '', ( #54 ), #55 );
#21 = APPLICATION_CONTEXT( 'core data for automotive mechanical design processes' );
#22 = PRODUCT_CATEGORY( 'part', 'NONE' );
#23 = PRODUCT_RELATED_PRODUCT_CATEGORY( 'detail', ' ', ( #56 ) );
#24 = PRODUCT_DEFINITION_SHAPE( 'NONE', 'NONE', #57 );
#25 = ADVANCED_BREP_SHAPE_REPRESENTATION( '_K0334.205_0', ( #58, #59 ), #6 );
#28 = UNCERTAINTY_MEASURE_WITH_UNIT( LENGTH_MEASURE( 0.00100000000000000 ), #30, '', '' );
#30 =  ( CONVERSION_BASED_UNIT( 'MILLIMETRE', #62 )LENGTH_UNIT(  )NAMED_UNIT( #65 ) );
#31 =  ( NAMED_UNIT( #67 )PLANE_ANGLE_UNIT(  )SI_UNIT( $, .RADIAN. ) );
#32 =  ( NAMED_UNIT( #67 )SI_UNIT( $, .STERADIAN. )SOLID_ANGLE_UNIT(  ) );
#34 = PRESENTATION_STYLE_ASSIGNMENT( ( #73 ) );
#35 = ADVANCED_FACE( '', ( #74, #75 ), #76, .T. );
#36 = PRESENTATION_STYLE_ASSIGNMENT( ( #77 ) );
#37 = ADVANCED_FACE( '', ( #78, #79 ), #80, .F. );
#38 = PRESENTATION_STYLE_ASSIGNMENT( ( #81 ) );
#39 = ADVANCED_FACE( '', ( #82, #83 ), #84, .F. );
#40 = PRESENTATION_STYLE_ASSIGNMENT( ( #85 ) );
#41 = ADVANCED_FACE( '', ( #86 ), #87, .T. );
#42 = PRESENTATION_STYLE_ASSIGNMENT( ( #88 ) );
#43 = ADVANCED_FACE( '', ( #89, #90 ), #91, .F. );
#44 = PRESENTATION_STYLE_ASSIGNMENT( ( #92 ) );
#45 = ADVANCED_FACE( '', ( #93, #94 ), #95, .T. );
#46 = PRESENTATION_STYLE_ASSIGNMENT( ( #96 ) );
#47 = ADVANCED_FACE( '', ( #97, #98 ), #99, .T. );
#48 = PRESENTATION_STYLE_ASSIGNMENT( ( #100 ) );
#49 = ADVANCED_FACE( '', ( #101 ), #102, .F. );
#50 = PRESENTATION_STYLE_ASSIGNMENT( ( #103 ) );
#51 = ADVANCED_FACE( '', ( #104, #105 ), #106, .T. );
#52 = PRESENTATION_STYLE_ASSIGNMENT( ( #107 ) );
#53 = ADVANCED_FACE( '', ( #108, #109 ), #110, .T. );
#54 = PRESENTATION_STYLE_ASSIGNMENT( ( #111 ) );
#55 = ADVANCED_FACE( '', ( #112, #113 ), #114, .F. );
#56 = PRODUCT( '_K0334.205_0', '_K0334.205_0', 'PART-_K0334.205_0-DESC', ( #115 ) );
#57 = PRODUCT_DEFINITION( 'NONE', 'NONE', #116, #2 );
#58 = BREP_WITH_VOIDS( '_K0334.205_0', #117, ( #118 ) );
#59 = AXIS2_PLACEMENT_3D( '', #119, #120, #121 );
#62 = LENGTH_MEASURE_WITH_UNIT( LENGTH_MEASURE( 1.00000000000000 ), #122 );
#65 = DIMENSIONAL_EXPONENTS( 1.00000000000000, 0.000000000000000, 0.000000000000000, 0.000000000000000, 0.000000000000000, 0.000000000000000, 0.000000000000000 );
#67 = DIMENSIONAL_EXPONENTS( 0.000000000000000, 0.000000000000000, 0.000000000000000, 0.000000000000000, 0.000000000000000, 0.000000000000000, 0.000000000000000 );
#73 = SURFACE_STYLE_USAGE( .BOTH., #123 );
#74 = FACE_OUTER_BOUND( '', #124, .T. );
#75 = FACE_OUTER_BOUND( '', #125, .T. );
#76 = CYLINDRICAL_SURFACE( '', #126, 2.50000000000000 );
#77 = SURFACE_STYLE_USAGE( .BOTH., #127 );
#78 = FACE_OUTER_BOUND( '', #128, .T. );
#79 = FACE_OUTER_BOUND( '', #129, .T. );
#80 = CYLINDRICAL_SURFACE( '', #130, 1.99000000000000 );
#81 = SURFACE_STYLE_USAGE( .BOTH., #131 );
#82 = FACE_BOUND( '', #132, .T. );
#83 = FACE_OUTER_BOUND( '', #133, .T. );
#84 = PLANE( '', #134 );
#85 = SURFACE_STYLE_USAGE( .BOTH., #135 );
#86 = FACE_OUTER_BOUND( '', #136, .T. );
#87 = PLANE( '', #137 );
#88 = SURFACE_STYLE_USAGE( .BOTH., #138 );
#89 = FACE_OUTER_BOUND( '', #139, .T. );
#90 = FACE_BOUND( '', #140, .T. );
#91 = PLANE( '', #141 );
#92 = SURFACE_STYLE_USAGE( .BOTH., #142 );
#93 = FACE_OUTER_BOUND( '', #143, .T. );
#94 = FACE_OUTER_BOUND( '', #144, .T. );
#95 = CYLINDRICAL_SURFACE( '', #145, 2.80000000000000 );
#96 = SURFACE_STYLE_USAGE( .BOTH., #146 );
#97 = FACE_OUTER_BOUND( '', #147, .T. );
#98 = FACE_BOUND( '', #148, .T. );
#99 = CONICAL_SURFACE( '', #149, 2.32679491920000, 0.523598775600000 );
#100 = SURFACE_STYLE_USAGE( .BOTH., #150 );
#101 = FACE_OUTER_BOUND( '', #151, .T. );
#102 = PLANE( '', #152 );
#103 = SURFACE_STYLE_USAGE( .BOTH., #153 );
#104 = FACE_BOUND( '', #154, .T. );
#105 = FACE_OUTER_BOUND( '', #155, .T. );
#106 = SPHERICAL_SURFACE( '', #156, 2.00000000000000 );
#107 = SURFACE_STYLE_USAGE( .BOTH., #157 );
#108 = FACE_BOUND( '', #158, .T. );
#109 = FACE_OUTER_BOUND( '', #159, .T. );
#110 = SPHERICAL_SURFACE( '', #160, 2.00000000000000 );
#111 = SURFACE_STYLE_USAGE( .BOTH., #161 );
#112 = FACE_OUTER_BOUND( '', #162, .T. );
#113 = FACE_OUTER_BOUND( '', #163, .T. );
#114 = CYLINDRICAL_SURFACE( '', #164, 1.99000000000000 );
#115 = PRODUCT_CONTEXT( '', #21, 'mechanical' );
#116 = PRODUCT_DEFINITION_FORMATION_WITH_SPECIFIED_SOURCE( ' ', 'NONE', #56, .NOT_KNOWN. );
#117 = CLOSED_SHELL( '', ( #55, #39, #45, #43, #35, #47, #49, #53 ) );
#118 = ORIENTED_CLOSED_SHELL( '', *, #165, .T. );
#119 = CARTESIAN_POINT( '', ( 0.000000000000000, 0.000000000000000, 0.000000000000000 ) );
#120 = DIRECTION( '', ( 0.000000000000000, 0.000000000000000, 1.00000000000000 ) );
#121 = DIRECTION( '', ( 1.00000000000000, 0.000000000000000, 0.000000000000000 ) );
#122 =  ( LENGTH_UNIT(  )NAMED_UNIT( #65 )SI_UNIT( .MILLI., .METRE. ) );
#123 = SURFACE_SIDE_STYLE( '', ( #167 ) );
#124 = EDGE_LOOP( '', ( #168 ) );
#125 = EDGE_LOOP( '', ( #169 ) );
#126 = AXIS2_PLACEMENT_3D( '', #170, #171, #172 );
#127 = SURFACE_SIDE_STYLE( '', ( #173 ) );
#128 = EDGE_LOOP( '', ( #174 ) );
#129 = EDGE_LOOP( '', ( #175 ) );
#130 = AXIS2_PLACEMENT_3D( '', #176, #177, #178 );
#131 = SURFACE_SIDE_STYLE( '', ( #179 ) );
#132 = EDGE_LOOP( '', ( #180 ) );
#133 = EDGE_LOOP( '', ( #181 ) );
#134 = AXIS2_PLACEMENT_3D( '', #182, #183, #184 );
#135 = SURFACE_SIDE_STYLE( '', ( #185 ) );
#136 = EDGE_LOOP( '', ( #186 ) );
#137 = AXIS2_PLACEMENT_3D( '', #187, #188, #189 );
#138 = SURFACE_SIDE_STYLE( '', ( #190 ) );
#139 = EDGE_LOOP( '', ( #191 ) );
#140 = EDGE_LOOP( '', ( #192 ) );
#141 = AXIS2_PLACEMENT_3D( '', #193, #194, #195 );
#142 = SURFACE_SIDE_STYLE( '', ( #196 ) );
#143 = EDGE_LOOP( '', ( #197 ) );
#144 = EDGE_LOOP( '', ( #198 ) );
#145 = AXIS2_PLACEMENT_3D( '', #199, #200, #201 );
#146 = SURFACE_SIDE_STYLE( '', ( #202 ) );
#147 = EDGE_LOOP( '', ( #203 ) );
#148 = EDGE_LOOP( '', ( #204 ) );
#149 = AXIS2_PLACEMENT_3D( '', #205, #206, #207 );
#150 = SURFACE_SIDE_STYLE( '', ( #208 ) );
#151 = EDGE_LOOP( '', ( #209 ) );
#152 = AXIS2_PLACEMENT_3D( '', #210, #211, #212 );
#153 = SURFACE_SIDE_STYLE( '', ( #213 ) );
#154 = VERTEX_LOOP( '', #214 );
#155 = EDGE_LOOP( '', ( #215 ) );
#156 = AXIS2_PLACEMENT_3D( '', #216, #217, #218 );
#157 = SURFACE_SIDE_STYLE( '', ( #219 ) );
#158 = VERTEX_LOOP( '', #220 );
#159 = EDGE_LOOP( '', ( #221 ) );
#160 = AXIS2_PLACEMENT_3D( '', #222, #223, #224 );
#161 = SURFACE_SIDE_STYLE( '', ( #225 ) );
#162 = EDGE_LOOP( '', ( #226 ) );
#163 = EDGE_LOOP( '', ( #227 ) );
#164 = AXIS2_PLACEMENT_3D( '', #228, #229, #230 );
#165 = CLOSED_SHELL( '', ( #41, #37, #51 ) );
#167 = SURFACE_STYLE_FILL_AREA( #231 );
#168 = ORIENTED_EDGE( '', *, *, #232, .F. );
#169 = ORIENTED_EDGE( '', *, *, #233, .T. );
#170 = CARTESIAN_POINT( '', ( 3.67394039744206E-16, 6.00000000000000, 0.000000000000000 ) );
#171 = DIRECTION( '', ( -6.12323399573677E-17, -1.00000000000000, 0.000000000000000 ) );
#172 = DIRECTION( '', ( -1.00000000000000, 6.12323399573677E-17, 0.000000000000000 ) );
#173 = SURFACE_STYLE_FILL_AREA( #234 );
#174 = ORIENTED_EDGE( '', *, *, #235, .T. );
#175 = ORIENTED_EDGE( '', *, *, #236, .F. );
#176 = CARTESIAN_POINT( '', ( 0.000000000000000, 1.00000000000000, 0.000000000000000 ) );
#177 = DIRECTION( '', ( -0.000000000000000, 1.00000000000000, 0.000000000000000 ) );
#178 = DIRECTION( '', ( 0.000000000000000, 0.000000000000000, -1.00000000000000 ) );
#179 = SURFACE_STYLE_FILL_AREA( #237 );
#180 = ORIENTED_EDGE( '', *, *, #238, .F. );
#181 = ORIENTED_EDGE( '', *, *, #239, .T. );
#182 = CARTESIAN_POINT( '', ( -2.80000000000000, 6.00000000000000, 0.000000000000000 ) );
#183 = DIRECTION( '', ( -6.12323399573677E-17, -1.00000000000000, 0.000000000000000 ) );
#184 = DIRECTION( '', ( 1.00000000000000, -6.12323399573677E-17, 0.000000000000000 ) );
#185 = SURFACE_STYLE_FILL_AREA( #240 );
#186 = ORIENTED_EDGE( '', *, *, #235, .F. );
#187 = CARTESIAN_POINT( '', ( 1.99000000000000, 1.00000000000000, 0.000000000000000 ) );
#188 = DIRECTION( '', ( 0.000000000000000, 1.00000000000000, 0.000000000000000 ) );
#189 = DIRECTION( '', ( 0.000000000000000, -0.000000000000000, 1.00000000000000 ) );
#190 = SURFACE_STYLE_FILL_AREA( #241 );
#191 = ORIENTED_EDGE( '', *, *, #242, .F. );
#192 = ORIENTED_EDGE( '', *, *, #232, .T. );
#193 = CARTESIAN_POINT( '', ( -2.50000000000000, 5.00000000000000, 0.000000000000000 ) );
#194 = DIRECTION( '', ( 6.12323399573677E-17, 1.00000000000000, -0.000000000000000 ) );
#195 = DIRECTION( '', ( -1.00000000000000, 6.12323399573677E-17, 0.000000000000000 ) );
#196 = SURFACE_STYLE_FILL_AREA( #243 );
#197 = ORIENTED_EDGE( '', *, *, #239, .F. );
#198 = ORIENTED_EDGE( '', *, *, #242, .T. );
#199 = CARTESIAN_POINT( '', ( 3.67394039744206E-16, 6.00000000000000, 0.000000000000000 ) );
#200 = DIRECTION( '', ( -6.12323399573677E-17, -1.00000000000000, 0.000000000000000 ) );
#201 = DIRECTION( '', ( -1.00000000000000, 6.12323399573677E-17, 0.000000000000000 ) );
#202 = SURFACE_STYLE_FILL_AREA( #244 );
#203 = ORIENTED_EDGE( '', *, *, #233, .F. );
#204 = ORIENTED_EDGE( '', *, *, #245, .T. );
#205 = CARTESIAN_POINT( '', ( 0.000000000000000, 0.000000000000000, 0.000000000000000 ) );
#206 = DIRECTION( '', ( 6.12323399573676E-17, 1.00000000000000, -0.000000000000000 ) );
#207 = DIRECTION( '', ( -1.00000000000000, 6.12323399573676E-17, 0.000000000000000 ) );
#208 = SURFACE_STYLE_FILL_AREA( #246 );
#209 = ORIENTED_EDGE( '', *, *, #245, .F. );
#210 = CARTESIAN_POINT( '', ( 1.47411496360992E-48, 2.40741243048404E-32, 0.000000000000000 ) );
#211 = DIRECTION( '', ( 6.12323399573677E-17, 1.00000000000000, -0.000000000000000 ) );
#212 = DIRECTION( '', ( -1.00000000000000, 6.12323399573677E-17, 0.000000000000000 ) );
#213 = SURFACE_STYLE_FILL_AREA( #247 );
#214 = VERTEX_POINT( '', #248 );
#215 = ORIENTED_EDGE( '', *, *, #236, .T. );
#216 = CARTESIAN_POINT( '', ( 0.000000000000000, 4.00000000000000, 0.000000000000000 ) );
#217 = DIRECTION( '', ( 0.000000000000000, -1.00000000000000, 0.000000000000000 ) );
#218 = DIRECTION( '', ( -1.00000000000000, 0.000000000000000, 0.000000000000000 ) );
#219 = SURFACE_STYLE_FILL_AREA( #249 );
#220 = VERTEX_POINT( '', #250 );
#221 = ORIENTED_EDGE( '', *, *, #251, .T. );
#222 = CARTESIAN_POINT( '', ( 0.000000000000000, 4.00000000000000, 0.000000000000000 ) );
#223 = DIRECTION( '', ( 0.000000000000000, -1.00000000000000, 0.000000000000000 ) );
#224 = DIRECTION( '', ( -1.00000000000000, 0.000000000000000, 0.000000000000000 ) );
#225 = SURFACE_STYLE_FILL_AREA( #252 );
#226 = ORIENTED_EDGE( '', *, *, #251, .F. );
#227 = ORIENTED_EDGE( '', *, *, #238, .T. );
#228 = CARTESIAN_POINT( '', ( 0.000000000000000, 1.00000000000000, 0.000000000000000 ) );
#229 = DIRECTION( '', ( -0.000000000000000, 1.00000000000000, 0.000000000000000 ) );
#230 = DIRECTION( '', ( 0.000000000000000, 0.000000000000000, -1.00000000000000 ) );
#231 = FILL_AREA_STYLE( '', ( #253 ) );
#232 = EDGE_CURVE( '', #254, #254, #255, .T. );
#233 = EDGE_CURVE( '', #256, #256, #257, .T. );
#234 = FILL_AREA_STYLE( '', ( #258 ) );
#235 = EDGE_CURVE( '', #259, #259, #260, .T. );
#236 = EDGE_CURVE( '', #261, #261, #262, .F. );
#237 = FILL_AREA_STYLE( '', ( #263 ) );
#238 = EDGE_CURVE( '', #264, #264, #265, .F. );
#239 = EDGE_CURVE( '', #266, #266, #267, .T. );
#240 = FILL_AREA_STYLE( '', ( #268 ) );
#241 = FILL_AREA_STYLE( '', ( #269 ) );
#242 = EDGE_CURVE( '', #270, #270, #271, .T. );
#243 = FILL_AREA_STYLE( '', ( #272 ) );
#244 = FILL_AREA_STYLE( '', ( #273 ) );
#245 = EDGE_CURVE( '', #274, #274, #275, .T. );
#246 = FILL_AREA_STYLE( '', ( #276 ) );
#247 = FILL_AREA_STYLE( '', ( #277 ) );
#248 = CARTESIAN_POINT( '', ( -1.22464679914735E-16, 2.00000000000000, 0.000000000000000 ) );
#249 = FILL_AREA_STYLE( '', ( #278 ) );
#250 = CARTESIAN_POINT( '', ( -1.22464679914735E-16, 6.00000000000000, 0.000000000000000 ) );
#251 = EDGE_CURVE( '', #279, #279, #280, .F. );
#252 = FILL_AREA_STYLE( '', ( #281 ) );
#253 = FILL_AREA_STYLE_COLOUR( '', #282 );
#254 = VERTEX_POINT( '', #283 );
#255 = CIRCLE( '', #284, 2.50000000000000 );
#256 = VERTEX_POINT( '', #285 );
#257 = CIRCLE( '', #286, 2.50000000000000 );
#258 = FILL_AREA_STYLE_COLOUR( '', #287 );
#259 = VERTEX_POINT( '', #288 );
#260 = CIRCLE( '', #289, 1.99000000000000 );
#261 = VERTEX_POINT( '', #290 );
#262 = CIRCLE( '', #291, 1.99000000000000 );
#263 = FILL_AREA_STYLE_COLOUR( '', #292 );
#264 = VERTEX_POINT( '', #293 );
#265 = CIRCLE( '', #294, 1.99000000000000 );
#266 = VERTEX_POINT( '', #295 );
#267 = CIRCLE( '', #296, 2.80000000000000 );
#268 = FILL_AREA_STYLE_COLOUR( '', #297 );
#269 = FILL_AREA_STYLE_COLOUR( '', #298 );
#270 = VERTEX_POINT( '', #299 );
#271 = CIRCLE( '', #300, 2.80000000000000 );
#272 = FILL_AREA_STYLE_COLOUR( '', #301 );
#273 = FILL_AREA_STYLE_COLOUR( '', #302 );
#274 = VERTEX_POINT( '', #303 );
#275 = CIRCLE( '', #304, 2.32679491920000 );
#276 = FILL_AREA_STYLE_COLOUR( '', #305 );
#277 = FILL_AREA_STYLE_COLOUR( '', #306 );
#278 = FILL_AREA_STYLE_COLOUR( '', #307 );
#279 = VERTEX_POINT( '', #308 );
#280 = CIRCLE( '', #309, 1.99000000000000 );
#281 = FILL_AREA_STYLE_COLOUR( '', #310 );
#282 = COLOUR_RGB( '', 0.689999997600000, 0.689999997600000, 0.689999997600000 );
#283 = CARTESIAN_POINT( '', ( -2.50000000000000, 5.00000000000000, 0.000000000000000 ) );
#284 = AXIS2_PLACEMENT_3D( '', #311, #312, #313 );
#285 = CARTESIAN_POINT( '', ( -2.50000000000000, 0.300000000000000, 0.000000000000000 ) );
#286 = AXIS2_PLACEMENT_3D( '', #314, #315, #316 );
#287 = COLOUR_RGB( '', 0.689999997600000, 0.689999997600000, 0.689999997600000 );
#288 = CARTESIAN_POINT( '', ( 0.000000000000000, 1.00000000000000, -1.99000000000000 ) );
#289 = AXIS2_PLACEMENT_3D( '', #317, #318, #319 );
#290 = CARTESIAN_POINT( '', ( 0.000000000000000, 3.80025015644562, 1.99000000000000 ) );
#291 = AXIS2_PLACEMENT_3D( '', #320, #321, #322 );
#292 = COLOUR_RGB( '', 0.689999997600000, 0.689999997600000, 0.689999997600000 );
#293 = CARTESIAN_POINT( '', ( 1.99000000000000, 6.00000000000000, 0.000000000000000 ) );
#294 = AXIS2_PLACEMENT_3D( '', #323, #324, #325 );
#295 = CARTESIAN_POINT( '', ( -2.80000000000000, 6.00000000000000, 0.000000000000000 ) );
#296 = AXIS2_PLACEMENT_3D( '', #326, #327, #328 );
#297 = COLOUR_RGB( '', 0.689999997600000, 0.689999997600000, 0.689999997600000 );
#298 = COLOUR_RGB( '', 0.689999997600000, 0.689999997600000, 0.689999997600000 );
#299 = CARTESIAN_POINT( '', ( -2.80000000000000, 5.00000000000000, 0.000000000000000 ) );
#300 = AXIS2_PLACEMENT_3D( '', #329, #330, #331 );
#301 = COLOUR_RGB( '', 0.689999997600000, 0.689999997600000, 0.689999997600000 );
#302 = COLOUR_RGB( '', 0.689999997600000, 0.689999997600000, 0.689999997600000 );
#303 = CARTESIAN_POINT( '', ( -2.32679491924311, 1.42475097506170E-16, 0.000000000000000 ) );
#304 = AXIS2_PLACEMENT_3D( '', #332, #333, #334 );
#305 = COLOUR_RGB( '', 0.689999997600000, 0.689999997600000, 0.689999997600000 );
#306 = COLOUR_RGB( '', 0.689999997600000, 0.689999997600000, 0.689999997600000 );
#307 = COLOUR_RGB( '', 0.689999997600000, 0.689999997600000, 0.689999997600000 );
#308 = CARTESIAN_POINT( '', ( 0.000000000000000, 4.19974984355438, -1.99000000000000 ) );
#309 = AXIS2_PLACEMENT_3D( '', #335, #336, #337 );
#310 = COLOUR_RGB( '', 0.689999997600000, 0.689999997600000, 0.689999997600000 );
#311 = CARTESIAN_POINT( '', ( 3.06161699786838E-16, 5.00000000000000, 0.000000000000000 ) );
#312 = DIRECTION( '', ( 6.12323399573677E-17, 1.00000000000000, -0.000000000000000 ) );
#313 = DIRECTION( '', ( -1.00000000000000, 6.12323399573677E-17, 0.000000000000000 ) );
#314 = CARTESIAN_POINT( '', ( 1.83697019872103E-17, 0.300000000000000, 0.000000000000000 ) );
#315 = DIRECTION( '', ( 6.12323399573677E-17, 1.00000000000000, -0.000000000000000 ) );
#316 = DIRECTION( '', ( -1.00000000000000, 6.12323399573677E-17, 0.000000000000000 ) );
#317 = CARTESIAN_POINT( '', ( 0.000000000000000, 1.00000000000000, 0.000000000000000 ) );
#318 = DIRECTION( '', ( 0.000000000000000, -1.00000000000000, -0.000000000000000 ) );
#319 = DIRECTION( '', ( 0.000000000000000, 0.000000000000000, -1.00000000000000 ) );
#320 = CARTESIAN_POINT( '', ( 0.000000000000000, 3.80025015644562, 0.000000000000000 ) );
#321 = DIRECTION( '', ( 0.000000000000000, 1.00000000000000, 0.000000000000000 ) );
#322 = DIRECTION( '', ( 0.000000000000000, -0.000000000000000, 1.00000000000000 ) );
#323 = CARTESIAN_POINT( '', ( 0.000000000000000, 6.00000000000000, 0.000000000000000 ) );
#324 = DIRECTION( '', ( -6.12323399573676E-17, -1.00000000000000, 0.000000000000000 ) );
#325 = DIRECTION( '', ( 1.00000000000000, -6.12323399573677E-17, 0.000000000000000 ) );
#326 = CARTESIAN_POINT( '', ( 3.67394039744206E-16, 6.00000000000000, 0.000000000000000 ) );
#327 = DIRECTION( '', ( 6.12323399573677E-17, 1.00000000000000, -0.000000000000000 ) );
#328 = DIRECTION( '', ( -1.00000000000000, 6.12323399573677E-17, 0.000000000000000 ) );
#329 = CARTESIAN_POINT( '', ( 3.06161699786838E-16, 5.00000000000000, 0.000000000000000 ) );
#330 = DIRECTION( '', ( 6.12323399573677E-17, 1.00000000000000, -0.000000000000000 ) );
#331 = DIRECTION( '', ( -1.00000000000000, 6.12323399573677E-17, 0.000000000000000 ) );
#332 = CARTESIAN_POINT( '', ( 0.000000000000000, 0.000000000000000, 0.000000000000000 ) );
#333 = DIRECTION( '', ( 6.12323399573676E-17, 1.00000000000000, -0.000000000000000 ) );
#334 = DIRECTION( '', ( -1.00000000000000, 6.12323399573676E-17, 0.000000000000000 ) );
#335 = CARTESIAN_POINT( '', ( 0.000000000000000, 4.19974984355438, 0.000000000000000 ) );
#336 = DIRECTION( '', ( 0.000000000000000, -1.00000000000000, -0.000000000000000 ) );
#337 = DIRECTION( '', ( 0.000000000000000, 0.000000000000000, -1.00000000000000 ) );
ENDSEC;
END-ISO-10303-21;
