ISO-10303-21;
HEADER;
FILE_DESCRIPTION( ( 'STEP AP214' ), '1' );
FILE_NAME( '//goodhand-server/Shared Folders/GoodHand Data/Kipp CAD/K0712/K0712.1006.stp', '2020-12-09T12:34:33', ( '' ), ( '' ), ' ', 'PARTsolutions', ' ' );
FILE_SCHEMA( ( 'AUTOMOTIVE_DESIGN { 1 0 10303 214 1 1 1 1 }' ) );
ENDSEC;
DATA;
#1 = MECHANICAL_DESIGN_GEOMETRIC_PRESENTATION_REPRESENTATION( ' ', ( #10, #11, #12, #13, #14, #15, #16, #17, #18, #19, #20, #21, #22 ), #6 );
#2 = PRODUCT_DEFINITION_CONTEXT( '', #23, 'design' );
#3 = APPLICATION_PROTOCOL_DEFINITION( 'international standard', 'automotive_design', 2001, #23 );
#4 = PRODUCT_CATEGORY_RELATIONSHIP( 'NONE', 'NONE', #24, #25 );
#5 = SHAPE_DEFINITION_REPRESENTATION( #26, #27 );
#6 =  ( GEOMETRIC_REPRESENTATION_CONTEXT( 3 )GLOBAL_UNCERTAINTY_ASSIGNED_CONTEXT( ( #30 ) )GLOBAL_UNIT_ASSIGNED_CONTEXT( ( #32, #33, #34 ) )REPRESENTATION_CONTEXT( 'NONE', 'WORKSPACE' ) );
#10 = STYLED_ITEM( '', ( #36 ), #37 );
#11 = STYLED_ITEM( '', ( #38 ), #39 );
#12 = STYLED_ITEM( '', ( #40 ), #41 );
#13 = STYLED_ITEM( '', ( #42 ), #43 );
#14 = STYLED_ITEM( '', ( #44 ), #45 );
#15 = STYLED_ITEM( '', ( #46 ), #47 );
#16 = STYLED_ITEM( '', ( #48 ), #49 );
#17 = STYLED_ITEM( '', ( #50 ), #51 );
#18 = STYLED_ITEM( '', ( #52 ), #53 );
#19 = STYLED_ITEM( '', ( #54 ), #55 );
#20 = STYLED_ITEM( '', ( #56 ), #57 );
#21 = STYLED_ITEM( '', ( #58 ), #59 );
#22 = STYLED_ITEM( '', ( #60 ), #61 );
#23 = APPLICATION_CONTEXT( 'core data for automotive mechanical design processes' );
#24 = PRODUCT_CATEGORY( 'part', 'NONE' );
#25 = PRODUCT_RELATED_PRODUCT_CATEGORY( 'detail', ' ', ( #62 ) );
#26 = PRODUCT_DEFINITION_SHAPE( 'NONE', 'NONE', #63 );
#27 = ADVANCED_BREP_SHAPE_REPRESENTATION( '_K0712.1006', ( #64, #65 ), #6 );
#30 = UNCERTAINTY_MEASURE_WITH_UNIT( LENGTH_MEASURE( 0.00100000000000000 ), #32, '', '' );
#32 =  ( CONVERSION_BASED_UNIT( 'MILLIMETRE', #68 )LENGTH_UNIT(  )NAMED_UNIT( #71 ) );
#33 =  ( NAMED_UNIT( #73 )PLANE_ANGLE_UNIT(  )SI_UNIT( $, .RADIAN. ) );
#34 =  ( NAMED_UNIT( #73 )SI_UNIT( $, .STERADIAN. )SOLID_ANGLE_UNIT(  ) );
#36 = PRESENTATION_STYLE_ASSIGNMENT( ( #79 ) );
#37 = ADVANCED_FACE( '', ( #80, #81 ), #82, .T. );
#38 = PRESENTATION_STYLE_ASSIGNMENT( ( #83 ) );
#39 = ADVANCED_FACE( '', ( #84, #85 ), #86, .F. );
#40 = PRESENTATION_STYLE_ASSIGNMENT( ( #87 ) );
#41 = ADVANCED_FACE( '', ( #88, #89 ), #90, .F. );
#42 = PRESENTATION_STYLE_ASSIGNMENT( ( #91 ) );
#43 = ADVANCED_FACE( '', ( #92, #93, #94 ), #95, .F. );
#44 = PRESENTATION_STYLE_ASSIGNMENT( ( #96 ) );
#45 = ADVANCED_FACE( '', ( #97, #98 ), #99, .F. );
#46 = PRESENTATION_STYLE_ASSIGNMENT( ( #100 ) );
#47 = ADVANCED_FACE( '', ( #101, #102 ), #103, .F. );
#48 = PRESENTATION_STYLE_ASSIGNMENT( ( #104 ) );
#49 = ADVANCED_FACE( '', ( #105, #106 ), #107, .T. );
#50 = PRESENTATION_STYLE_ASSIGNMENT( ( #108 ) );
#51 = ADVANCED_FACE( '', ( #109, #110 ), #111, .T. );
#52 = PRESENTATION_STYLE_ASSIGNMENT( ( #112 ) );
#53 = ADVANCED_FACE( '', ( #113, #114 ), #115, .F. );
#54 = PRESENTATION_STYLE_ASSIGNMENT( ( #116 ) );
#55 = ADVANCED_FACE( '', ( #117, #118 ), #119, .F. );
#56 = PRESENTATION_STYLE_ASSIGNMENT( ( #120 ) );
#57 = ADVANCED_FACE( '', ( #121, #122 ), #123, .F. );
#58 = PRESENTATION_STYLE_ASSIGNMENT( ( #124 ) );
#59 = ADVANCED_FACE( '', ( #125, #126 ), #127, .F. );
#60 = PRESENTATION_STYLE_ASSIGNMENT( ( #128 ) );
#61 = ADVANCED_FACE( '', ( #129, #130 ), #131, .T. );
#62 = PRODUCT( '_K0712.1006', '_K0712.1006', 'PART-_K0712.1006-DESC', ( #132 ) );
#63 = PRODUCT_DEFINITION( 'NONE', 'NONE', #133, #2 );
#64 = MANIFOLD_SOLID_BREP( '_K0712.1006', #134 );
#65 = AXIS2_PLACEMENT_3D( '', #135, #136, #137 );
#68 = LENGTH_MEASURE_WITH_UNIT( LENGTH_MEASURE( 1.00000000000000 ), #138 );
#71 = DIMENSIONAL_EXPONENTS( 1.00000000000000, 0.000000000000000, 0.000000000000000, 0.000000000000000, 0.000000000000000, 0.000000000000000, 0.000000000000000 );
#73 = DIMENSIONAL_EXPONENTS( 0.000000000000000, 0.000000000000000, 0.000000000000000, 0.000000000000000, 0.000000000000000, 0.000000000000000, 0.000000000000000 );
#79 = SURFACE_STYLE_USAGE( .BOTH., #139 );
#80 = FACE_OUTER_BOUND( '', #140, .T. );
#81 = FACE_OUTER_BOUND( '', #141, .T. );
#82 = CYLINDRICAL_SURFACE( '', #142, 5.00000000000000 );
#83 = SURFACE_STYLE_USAGE( .BOTH., #143 );
#84 = FACE_OUTER_BOUND( '', #144, .T. );
#85 = FACE_BOUND( '', #145, .T. );
#86 = CONICAL_SURFACE( '', #146, 2.45850000000000, 0.785398163400000 );
#87 = SURFACE_STYLE_USAGE( .BOTH., #147 );
#88 = FACE_OUTER_BOUND( '', #148, .T. );
#89 = FACE_OUTER_BOUND( '', #149, .T. );
#90 = CYLINDRICAL_SURFACE( '', #150, 5.00000000000000 );
#91 = SURFACE_STYLE_USAGE( .BOTH., #151 );
#92 = FACE_BOUND( '', #152, .T. );
#93 = FACE_OUTER_BOUND( '', #153, .T. );
#94 = FACE_OUTER_BOUND( '', #154, .T. );
#95 = TOROIDAL_SURFACE( '', #155, 5.00000000000000, 0.666666666700000 );
#96 = SURFACE_STYLE_USAGE( .BOTH., #156 );
#97 = FACE_OUTER_BOUND( '', #157, .T. );
#98 = FACE_OUTER_BOUND( '', #158, .T. );
#99 = CYLINDRICAL_SURFACE( '', #159, 5.00000000000000 );
#100 = SURFACE_STYLE_USAGE( .BOTH., #160 );
#101 = FACE_BOUND( '', #161, .T. );
#102 = FACE_OUTER_BOUND( '', #162, .T. );
#103 = PLANE( '', #163 );
#104 = SURFACE_STYLE_USAGE( .BOTH., #164 );
#105 = FACE_BOUND( '', #165, .T. );
#106 = FACE_OUTER_BOUND( '', #166, .T. );
#107 = PLANE( '', #167 );
#108 = SURFACE_STYLE_USAGE( .BOTH., #168 );
#109 = FACE_OUTER_BOUND( '', #169, .T. );
#110 = FACE_OUTER_BOUND( '', #170, .T. );
#111 = TOROIDAL_SURFACE( '', #171, 4.50000000000000, 0.500000000000000 );
#112 = SURFACE_STYLE_USAGE( .BOTH., #172 );
#113 = FACE_OUTER_BOUND( '', #173, .T. );
#114 = FACE_OUTER_BOUND( '', #174, .T. );
#115 = CYLINDRICAL_SURFACE( '', #175, 2.45850000000000 );
#116 = SURFACE_STYLE_USAGE( .BOTH., #176 );
#117 = FACE_OUTER_BOUND( '', #177, .T. );
#118 = FACE_BOUND( '', #178, .T. );
#119 = CONICAL_SURFACE( '', #179, 857.167300702100, 1.02974425870000 );
#120 = SURFACE_STYLE_USAGE( .BOTH., #180 );
#121 = FACE_BOUND( '', #181, .T. );
#122 = FACE_OUTER_BOUND( '', #182, .T. );
#123 = SPHERICAL_SURFACE( '', #183, 5.00000000000000 );
#124 = SURFACE_STYLE_USAGE( .BOTH., #184 );
#125 = FACE_OUTER_BOUND( '', #185, .T. );
#126 = FACE_OUTER_BOUND( '', #186, .T. );
#127 = TOROIDAL_SURFACE( '', #187, 6.00000000000000, 1.00000000000000 );
#128 = SURFACE_STYLE_USAGE( .BOTH., #188 );
#129 = FACE_BOUND( '', #189, .T. );
#130 = FACE_OUTER_BOUND( '', #190, .T. );
#131 = SPHERICAL_SURFACE( '', #191, 8.50000000000000 );
#132 = PRODUCT_CONTEXT( '', #23, 'mechanical' );
#133 = PRODUCT_DEFINITION_FORMATION_WITH_SPECIFIED_SOURCE( ' ', 'NONE', #62, .NOT_KNOWN. );
#134 = CLOSED_SHELL( '', ( #55, #53, #41, #61, #59, #37, #49, #47, #51, #39, #43, #45, #57 ) );
#135 = CARTESIAN_POINT( '', ( 0.000000000000000, 0.000000000000000, 0.000000000000000 ) );
#136 = DIRECTION( '', ( 0.000000000000000, 0.000000000000000, 1.00000000000000 ) );
#137 = DIRECTION( '', ( 1.00000000000000, 0.000000000000000, 0.000000000000000 ) );
#138 =  ( LENGTH_UNIT(  )NAMED_UNIT( #71 )SI_UNIT( .MILLI., .METRE. ) );
#139 = SURFACE_SIDE_STYLE( '', ( #193 ) );
#140 = EDGE_LOOP( '', ( #194 ) );
#141 = EDGE_LOOP( '', ( #195 ) );
#142 = AXIS2_PLACEMENT_3D( '', #196, #197, #198 );
#143 = SURFACE_SIDE_STYLE( '', ( #199 ) );
#144 = EDGE_LOOP( '', ( #200 ) );
#145 = EDGE_LOOP( '', ( #201 ) );
#146 = AXIS2_PLACEMENT_3D( '', #202, #203, #204 );
#147 = SURFACE_SIDE_STYLE( '', ( #205 ) );
#148 = EDGE_LOOP( '', ( #206 ) );
#149 = EDGE_LOOP( '', ( #207 ) );
#150 = AXIS2_PLACEMENT_3D( '', #208, #209, #210 );
#151 = SURFACE_SIDE_STYLE( '', ( #211 ) );
#152 = VERTEX_LOOP( '', #212 );
#153 = EDGE_LOOP( '', ( #213 ) );
#154 = EDGE_LOOP( '', ( #214 ) );
#155 = AXIS2_PLACEMENT_3D( '', #215, #216, #217 );
#156 = SURFACE_SIDE_STYLE( '', ( #218 ) );
#157 = EDGE_LOOP( '', ( #219 ) );
#158 = EDGE_LOOP( '', ( #220 ) );
#159 = AXIS2_PLACEMENT_3D( '', #221, #222, #223 );
#160 = SURFACE_SIDE_STYLE( '', ( #224 ) );
#161 = EDGE_LOOP( '', ( #225 ) );
#162 = EDGE_LOOP( '', ( #226 ) );
#163 = AXIS2_PLACEMENT_3D( '', #227, #228, #229 );
#164 = SURFACE_SIDE_STYLE( '', ( #230 ) );
#165 = EDGE_LOOP( '', ( #231 ) );
#166 = EDGE_LOOP( '', ( #232, #233 ) );
#167 = AXIS2_PLACEMENT_3D( '', #234, #235, #236 );
#168 = SURFACE_SIDE_STYLE( '', ( #237 ) );
#169 = EDGE_LOOP( '', ( #238 ) );
#170 = EDGE_LOOP( '', ( #239 ) );
#171 = AXIS2_PLACEMENT_3D( '', #240, #241, #242 );
#172 = SURFACE_SIDE_STYLE( '', ( #243 ) );
#173 = EDGE_LOOP( '', ( #244 ) );
#174 = EDGE_LOOP( '', ( #245 ) );
#175 = AXIS2_PLACEMENT_3D( '', #246, #247, #248 );
#176 = SURFACE_SIDE_STYLE( '', ( #249 ) );
#177 = EDGE_LOOP( '', ( #250 ) );
#178 = VERTEX_LOOP( '', #251 );
#179 = AXIS2_PLACEMENT_3D( '', #252, #253, #254 );
#180 = SURFACE_SIDE_STYLE( '', ( #255 ) );
#181 = VERTEX_LOOP( '', #256 );
#182 = EDGE_LOOP( '', ( #257 ) );
#183 = AXIS2_PLACEMENT_3D( '', #258, #259, #260 );
#184 = SURFACE_SIDE_STYLE( '', ( #261 ) );
#185 = EDGE_LOOP( '', ( #262 ) );
#186 = EDGE_LOOP( '', ( #263, #264 ) );
#187 = AXIS2_PLACEMENT_3D( '', #265, #266, #267 );
#188 = SURFACE_SIDE_STYLE( '', ( #268 ) );
#189 = VERTEX_LOOP( '', #269 );
#190 = EDGE_LOOP( '', ( #270, #271 ) );
#191 = AXIS2_PLACEMENT_3D( '', #272, #273, #274 );
#193 = SURFACE_STYLE_FILL_AREA( #275 );
#194 = ORIENTED_EDGE( '', *, *, #276, .F. );
#195 = ORIENTED_EDGE( '', *, *, #277, .T. );
#196 = CARTESIAN_POINT( '', ( 25.0000000000000, 0.000000000000000, 0.000000000000000 ) );
#197 = DIRECTION( '', ( -1.00000000000000, -0.000000000000000, 0.000000000000000 ) );
#198 = DIRECTION( '', ( -0.000000000000000, 0.000000000000000, -1.00000000000000 ) );
#199 = SURFACE_STYLE_FILL_AREA( #278 );
#200 = ORIENTED_EDGE( '', *, *, #279, .T. );
#201 = ORIENTED_EDGE( '', *, *, #280, .F. );
#202 = CARTESIAN_POINT( '', ( 24.4585000000000, 0.000000000000000, 0.000000000000000 ) );
#203 = DIRECTION( '', ( 1.00000000000000, -0.000000000000000, -0.000000000000000 ) );
#204 = DIRECTION( '', ( -0.000000000000000, 0.000000000000000, -1.00000000000000 ) );
#205 = SURFACE_STYLE_FILL_AREA( #281 );
#206 = ORIENTED_EDGE( '', *, *, #282, .F. );
#207 = ORIENTED_EDGE( '', *, *, #283, .F. );
#208 = CARTESIAN_POINT( '', ( 0.000000000000000, -10.0000000000000, 0.000000000000000 ) );
#209 = DIRECTION( '', ( -0.000000000000000, 1.00000000000000, 0.000000000000000 ) );
#210 = DIRECTION( '', ( 0.000000000000000, 0.000000000000000, -1.00000000000000 ) );
#211 = SURFACE_STYLE_FILL_AREA( #284 );
#212 = VERTEX_POINT( '', #285 );
#213 = ORIENTED_EDGE( '', *, *, #286, .F. );
#214 = ORIENTED_EDGE( '', *, *, #283, .T. );
#215 = CARTESIAN_POINT( '', ( 0.000000000000000, -2.00000000000000, 0.000000000000000 ) );
#216 = DIRECTION( '', ( 0.000000000000000, -1.00000000000000, -0.000000000000000 ) );
#217 = DIRECTION( '', ( 0.000000000000000, 0.000000000000000, -1.00000000000000 ) );
#218 = SURFACE_STYLE_FILL_AREA( #287 );
#219 = ORIENTED_EDGE( '', *, *, #286, .T. );
#220 = ORIENTED_EDGE( '', *, *, #288, .F. );
#221 = CARTESIAN_POINT( '', ( 0.000000000000000, -10.0000000000000, 0.000000000000000 ) );
#222 = DIRECTION( '', ( -0.000000000000000, 1.00000000000000, 0.000000000000000 ) );
#223 = DIRECTION( '', ( 0.000000000000000, 0.000000000000000, -1.00000000000000 ) );
#224 = SURFACE_STYLE_FILL_AREA( #289 );
#225 = ORIENTED_EDGE( '', *, *, #279, .F. );
#226 = ORIENTED_EDGE( '', *, *, #290, .T. );
#227 = CARTESIAN_POINT( '', ( 25.0000000000000, 4.50000000000000, 0.000000000000000 ) );
#228 = DIRECTION( '', ( -1.00000000000000, 0.000000000000000, 0.000000000000000 ) );
#229 = DIRECTION( '', ( 0.000000000000000, 0.000000000000000, 1.00000000000000 ) );
#230 = SURFACE_STYLE_FILL_AREA( #291 );
#231 = ORIENTED_EDGE( '', *, *, #282, .T. );
#232 = ORIENTED_EDGE( '', *, *, #292, .T. );
#233 = ORIENTED_EDGE( '', *, *, #293, .F. );
#234 = CARTESIAN_POINT( '', ( 10.2303888463279, -5.05857134504686, 10.0000000000000 ) );
#235 = DIRECTION( '', ( 0.0436193873653359, -0.999048221581858, 0.000000000000000 ) );
#236 = DIRECTION( '', ( 0.999048221581858, 0.0436193873653360, 0.000000000000000 ) );
#237 = SURFACE_STYLE_FILL_AREA( #294 );
#238 = ORIENTED_EDGE( '', *, *, #276, .T. );
#239 = ORIENTED_EDGE( '', *, *, #290, .F. );
#240 = CARTESIAN_POINT( '', ( 24.5000000000000, 0.000000000000000, 0.000000000000000 ) );
#241 = DIRECTION( '', ( 1.00000000000000, 0.000000000000000, -0.000000000000000 ) );
#242 = DIRECTION( '', ( -0.000000000000000, 0.000000000000000, -1.00000000000000 ) );
#243 = SURFACE_STYLE_FILL_AREA( #295 );
#244 = ORIENTED_EDGE( '', *, *, #280, .T. );
#245 = ORIENTED_EDGE( '', *, *, #296, .F. );
#246 = CARTESIAN_POINT( '', ( 25.0000000000000, 0.000000000000000, 0.000000000000000 ) );
#247 = DIRECTION( '', ( -1.00000000000000, -0.000000000000000, 0.000000000000000 ) );
#248 = DIRECTION( '', ( -0.000000000000000, 0.000000000000000, -1.00000000000000 ) );
#249 = SURFACE_STYLE_FILL_AREA( #297 );
#250 = ORIENTED_EDGE( '', *, *, #296, .T. );
#251 = VERTEX_POINT( '', #298 );
#252 = CARTESIAN_POINT( '', ( 525.060859078174, 0.000000000000000, 0.000000000000000 ) );
#253 = DIRECTION( '', ( 1.00000000000000, -0.000000000000000, -0.000000000000000 ) );
#254 = DIRECTION( '', ( -0.000000000000000, 0.000000000000000, -1.00000000000000 ) );
#255 = SURFACE_STYLE_FILL_AREA( #299 );
#256 = VERTEX_POINT( '', #300 );
#257 = ORIENTED_EDGE( '', *, *, #288, .T. );
#258 = CARTESIAN_POINT( '', ( 6.28837260041593E-15, -8.67361737988404E-16, 0.000000000000000 ) );
#259 = DIRECTION( '', ( 0.000000000000000, -1.00000000000000, 0.000000000000000 ) );
#260 = DIRECTION( '', ( 1.00000000000000, 0.000000000000000, 0.000000000000000 ) );
#261 = SURFACE_STYLE_FILL_AREA( #301 );
#262 = ORIENTED_EDGE( '', *, *, #277, .F. );
#263 = ORIENTED_EDGE( '', *, *, #292, .F. );
#264 = ORIENTED_EDGE( '', *, *, #302, .T. );
#265 = CARTESIAN_POINT( '', ( 7.36545993132812, 0.000000000000000, 0.000000000000000 ) );
#266 = DIRECTION( '', ( 1.00000000000000, 0.000000000000000, -0.000000000000000 ) );
#267 = DIRECTION( '', ( -0.000000000000000, 0.000000000000000, -1.00000000000000 ) );
#268 = SURFACE_STYLE_FILL_AREA( #303 );
#269 = VERTEX_POINT( '', #304 );
#270 = ORIENTED_EDGE( '', *, *, #302, .F. );
#271 = ORIENTED_EDGE( '', *, *, #293, .T. );
#272 = CARTESIAN_POINT( '', ( 0.000000000000000, -2.60208521396521E-15, 0.000000000000000 ) );
#273 = DIRECTION( '', ( 1.00000000000000, 0.000000000000000, 0.000000000000000 ) );
#274 = DIRECTION( '', ( 0.000000000000000, 1.00000000000000, 0.000000000000000 ) );
#275 = FILL_AREA_STYLE( '', ( #305 ) );
#276 = EDGE_CURVE( '', #306, #306, #307, .T. );
#277 = EDGE_CURVE( '', #308, #308, #309, .T. );
#278 = FILL_AREA_STYLE( '', ( #310 ) );
#279 = EDGE_CURVE( '', #311, #311, #312, .T. );
#280 = EDGE_CURVE( '', #313, #313, #314, .T. );
#281 = FILL_AREA_STYLE( '', ( #315 ) );
#282 = EDGE_CURVE( '', #316, #316, #317, .F. );
#283 = EDGE_CURVE( '', #318, #318, #319, .T. );
#284 = FILL_AREA_STYLE( '', ( #320 ) );
#285 = CARTESIAN_POINT( '', ( 0.000000000000000, -2.00000000000000, -5.66666666666667 ) );
#286 = EDGE_CURVE( '', #321, #321, #322, .T. );
#287 = FILL_AREA_STYLE( '', ( #323 ) );
#288 = EDGE_CURVE( '', #324, #324, #325, .T. );
#289 = FILL_AREA_STYLE( '', ( #326 ) );
#290 = EDGE_CURVE( '', #327, #327, #328, .T. );
#291 = FILL_AREA_STYLE( '', ( #329 ) );
#292 = EDGE_CURVE( '', #330, #331, #332, .T. );
#293 = EDGE_CURVE( '', #330, #331, #333, .F. );
#294 = FILL_AREA_STYLE( '', ( #334 ) );
#295 = FILL_AREA_STYLE( '', ( #335 ) );
#296 = EDGE_CURVE( '', #336, #336, #337, .T. );
#297 = FILL_AREA_STYLE( '', ( #338 ) );
#298 = CARTESIAN_POINT( '', ( 10.0227841681207, 0.000000000000000, 0.000000000000000 ) );
#299 = FILL_AREA_STYLE( '', ( #339 ) );
#300 = CARTESIAN_POINT( '', ( 6.59453430020276E-15, 5.00000000000000, 0.000000000000000 ) );
#301 = FILL_AREA_STYLE( '', ( #340 ) );
#302 = EDGE_CURVE( '', #330, #331, #341, .T. );
#303 = FILL_AREA_STYLE( '', ( #342 ) );
#304 = CARTESIAN_POINT( '', ( -8.50000000000000, -2.08161032432759E-15, 0.000000000000000 ) );
#305 = FILL_AREA_STYLE_COLOUR( '', #343 );
#306 = VERTEX_POINT( '', #344 );
#307 = CIRCLE( '', #345, 5.00000000000000 );
#308 = VERTEX_POINT( '', #346 );
#309 = CIRCLE( '', #347, 5.00000000000000 );
#310 = FILL_AREA_STYLE_COLOUR( '', #348 );
#311 = VERTEX_POINT( '', #349 );
#312 = CIRCLE( '', #350, 3.00000000000000 );
#313 = VERTEX_POINT( '', #351 );
#314 = CIRCLE( '', #352, 2.45850000000000 );
#315 = FILL_AREA_STYLE_COLOUR( '', #353 );
#316 = VERTEX_POINT( '', #354 );
#317 = ELLIPSE( '', #355, 5.00476342580000, 5.00000000000000 );
#318 = VERTEX_POINT( '', #356 );
#319 = CIRCLE( '', #357, 5.00000000000000 );
#320 = FILL_AREA_STYLE_COLOUR( '', #358 );
#321 = VERTEX_POINT( '', #359 );
#322 = CIRCLE( '', #360, 5.00000000000000 );
#323 = FILL_AREA_STYLE_COLOUR( '', #361 );
#324 = VERTEX_POINT( '', #362 );
#325 = CIRCLE( '', #363, 5.00000000000000 );
#326 = FILL_AREA_STYLE_COLOUR( '', #364 );
#327 = VERTEX_POINT( '', #365 );
#328 = CIRCLE( '', #366, 4.50000000000000 );
#329 = FILL_AREA_STYLE_COLOUR( '', #367 );
#330 = VERTEX_POINT( '', #368 );
#331 = VERTEX_POINT( '', #369 );
#332 = B_SPLINE_CURVE_WITH_KNOTS( '', 3, ( #370, #371, #372, #373, #374, #375 ), .UNSPECIFIED., .F., .F., ( 4, 2, 4 ), ( 1.01495553127064E-06, 0.00126493016410303, 0.00252884537267478 ), .UNSPECIFIED. );
#333 = CIRCLE( '', #376, 6.48074069840000 );
#334 = FILL_AREA_STYLE_COLOUR( '', #377 );
#335 = FILL_AREA_STYLE_COLOUR( '', #378 );
#336 = VERTEX_POINT( '', #379 );
#337 = CIRCLE( '', #380, 2.45850000000000 );
#338 = FILL_AREA_STYLE_COLOUR( '', #381 );
#339 = FILL_AREA_STYLE_COLOUR( '', #382 );
#340 = FILL_AREA_STYLE_COLOUR( '', #383 );
#341 = CIRCLE( '', #384, 5.36842105260000 );
#342 = FILL_AREA_STYLE_COLOUR( '', #385 );
#343 = COLOUR_RGB( '', 0.689999997600000, 0.689999997600000, 0.689999997600000 );
#344 = CARTESIAN_POINT( '', ( 24.5000000000000, 0.000000000000000, -5.00000000000000 ) );
#345 = AXIS2_PLACEMENT_3D( '', #386, #387, #388 );
#346 = CARTESIAN_POINT( '', ( 7.36545993132812, 0.000000000000000, -5.00000000000000 ) );
#347 = AXIS2_PLACEMENT_3D( '', #389, #390, #391 );
#348 = COLOUR_RGB( '', 0.689999997600000, 0.689999997600000, 0.689999997600000 );
#349 = CARTESIAN_POINT( '', ( 25.0000000000000, 0.000000000000000, -3.00000000000000 ) );
#350 = AXIS2_PLACEMENT_3D( '', #392, #393, #394 );
#351 = CARTESIAN_POINT( '', ( 24.4585000000000, 0.000000000000000, -2.45850000000000 ) );
#352 = AXIS2_PLACEMENT_3D( '', #395, #396, #397 );
#353 = COLOUR_RGB( '', 0.689999997600000, 0.689999997600000, 0.689999997600000 );
#354 = CARTESIAN_POINT( '', ( -5.00000000000001, -5.72354448294082, 0.000000000000000 ) );
#355 = AXIS2_PLACEMENT_3D( '', #398, #399, #400 );
#356 = CARTESIAN_POINT( '', ( 0.000000000000000, -2.66666666666667, -5.00000000000001 ) );
#357 = AXIS2_PLACEMENT_3D( '', #401, #402, #403 );
#358 = COLOUR_RGB( '', 0.689999997600000, 0.689999997600000, 0.689999997600000 );
#359 = CARTESIAN_POINT( '', ( 0.000000000000000, -1.33333333333333, -5.00000000000001 ) );
#360 = AXIS2_PLACEMENT_3D( '', #404, #405, #406 );
#361 = COLOUR_RGB( '', 0.689999997600000, 0.689999997600000, 0.689999997600000 );
#362 = CARTESIAN_POINT( '', ( 0.000000000000000, 0.000000000000000, -5.00000000000001 ) );
#363 = AXIS2_PLACEMENT_3D( '', #407, #408, #409 );
#364 = COLOUR_RGB( '', 0.689999997600000, 0.689999997600000, 0.689999997600000 );
#365 = CARTESIAN_POINT( '', ( 25.0000000000000, 0.000000000000000, -4.50000000000000 ) );
#366 = AXIS2_PLACEMENT_3D( '', #410, #411, #412 );
#367 = COLOUR_RGB( '', 0.689999997600000, 0.689999997600000, 0.689999997600000 );
#368 = CARTESIAN_POINT( '', ( 6.59014835960937, -5.21750767711073, -1.26394550421627 ) );
#369 = CARTESIAN_POINT( '', ( 6.59014835960937, -5.21750767711073, 1.26394550421627 ) );
#370 = CARTESIAN_POINT( '', ( 6.59014835960937, -5.21750767711073, -1.26394550421627 ) );
#371 = CARTESIAN_POINT( '', ( 6.67316452516984, -5.21388311304571, -0.846065417858050 ) );
#372 = CARTESIAN_POINT( '', ( 6.75108180090987, -5.21048117131804, -0.427946697260824 ) );
#373 = CARTESIAN_POINT( '', ( 6.75245286333089, -5.21042130943995, 0.415519822902592 ) );
#374 = CARTESIAN_POINT( '', ( 6.67401591558119, -5.21384594053757, 0.841779757394026 ) );
#375 = CARTESIAN_POINT( '', ( 6.59014835960937, -5.21750767711073, 1.26394550421627 ) );
#376 = AXIS2_PLACEMENT_3D( '', #413, #414, #415 );
#377 = COLOUR_RGB( '', 0.689999997600000, 0.689999997600000, 0.689999997600000 );
#378 = COLOUR_RGB( '', 0.689999997600000, 0.689999997600000, 0.689999997600000 );
#379 = CARTESIAN_POINT( '', ( 11.5000000000000, 0.000000000000000, -2.45850000000000 ) );
#380 = AXIS2_PLACEMENT_3D( '', #416, #417, #418 );
#381 = COLOUR_RGB( '', 0.689999997600000, 0.689999997600000, 0.689999997600000 );
#382 = COLOUR_RGB( '', 0.689999997600000, 0.689999997600000, 0.689999997600000 );
#383 = COLOUR_RGB( '', 0.689999997600000, 0.689999997600000, 0.689999997600000 );
#384 = AXIS2_PLACEMENT_3D( '', #419, #420, #421 );
#385 = COLOUR_RGB( '', 0.689999997600000, 0.689999997600000, 0.689999997600000 );
#386 = CARTESIAN_POINT( '', ( 24.5000000000000, 0.000000000000000, 0.000000000000000 ) );
#387 = DIRECTION( '', ( 1.00000000000000, 0.000000000000000, -0.000000000000000 ) );
#388 = DIRECTION( '', ( -0.000000000000000, 0.000000000000000, -1.00000000000000 ) );
#389 = CARTESIAN_POINT( '', ( 7.36545993132812, 0.000000000000000, 0.000000000000000 ) );
#390 = DIRECTION( '', ( 1.00000000000000, 0.000000000000000, -0.000000000000000 ) );
#391 = DIRECTION( '', ( -0.000000000000000, 0.000000000000000, -1.00000000000000 ) );
#392 = CARTESIAN_POINT( '', ( 25.0000000000000, 0.000000000000000, 0.000000000000000 ) );
#393 = DIRECTION( '', ( 1.00000000000000, 0.000000000000000, -0.000000000000000 ) );
#394 = DIRECTION( '', ( -0.000000000000000, 0.000000000000000, -1.00000000000000 ) );
#395 = CARTESIAN_POINT( '', ( 24.4585000000000, 0.000000000000000, 0.000000000000000 ) );
#396 = DIRECTION( '', ( 1.00000000000000, 0.000000000000000, -0.000000000000000 ) );
#397 = DIRECTION( '', ( -0.000000000000000, 0.000000000000000, -1.00000000000000 ) );
#398 = CARTESIAN_POINT( '', ( 0.000000000000000, -5.50523976839826, 0.000000000000000 ) );
#399 = DIRECTION( '', ( 0.0436193873653359, -0.999048221581858, 0.000000000000000 ) );
#400 = DIRECTION( '', ( -0.999048221581858, -0.0436193873653359, 0.000000000000000 ) );
#401 = CARTESIAN_POINT( '', ( 0.000000000000000, -2.66666666666667, 0.000000000000000 ) );
#402 = DIRECTION( '', ( 0.000000000000000, -1.00000000000000, -0.000000000000000 ) );
#403 = DIRECTION( '', ( 0.000000000000000, 0.000000000000000, -1.00000000000000 ) );
#404 = CARTESIAN_POINT( '', ( 0.000000000000000, -1.33333333333333, 0.000000000000000 ) );
#405 = DIRECTION( '', ( 0.000000000000000, -1.00000000000000, -0.000000000000000 ) );
#406 = DIRECTION( '', ( 0.000000000000000, 0.000000000000000, -1.00000000000000 ) );
#407 = CARTESIAN_POINT( '', ( 0.000000000000000, 0.000000000000000, 0.000000000000000 ) );
#408 = DIRECTION( '', ( 0.000000000000000, -1.00000000000000, -0.000000000000000 ) );
#409 = DIRECTION( '', ( 0.000000000000000, 0.000000000000000, -1.00000000000000 ) );
#410 = CARTESIAN_POINT( '', ( 25.0000000000000, 0.000000000000000, 0.000000000000000 ) );
#411 = DIRECTION( '', ( 1.00000000000000, 0.000000000000000, -0.000000000000000 ) );
#412 = DIRECTION( '', ( -0.000000000000000, 0.000000000000000, -1.00000000000000 ) );
#413 = CARTESIAN_POINT( '', ( 0.239906630509348, -5.49476521870022, 0.000000000000000 ) );
#414 = DIRECTION( '', ( 0.0436193873653360, -0.999048221581858, 0.000000000000000 ) );
#415 = DIRECTION( '', ( 0.999048221581858, 0.0436193873653360, 0.000000000000000 ) );
#416 = CARTESIAN_POINT( '', ( 11.5000000000000, 0.000000000000000, 0.000000000000000 ) );
#417 = DIRECTION( '', ( 1.00000000000000, 0.000000000000000, -0.000000000000000 ) );
#418 = DIRECTION( '', ( -0.000000000000000, 0.000000000000000, -1.00000000000000 ) );
#419 = CARTESIAN_POINT( '', ( 6.59014835960937, 0.000000000000000, 0.000000000000000 ) );
#420 = DIRECTION( '', ( 1.00000000000000, 0.000000000000000, -0.000000000000000 ) );
#421 = DIRECTION( '', ( -0.000000000000000, 0.000000000000000, -1.00000000000000 ) );
ENDSEC;
END-ISO-10303-21;
