ISO-10303-21;
HEADER;
FILE_DESCRIPTION( ( 'STEP AP214' ), '1' );
FILE_NAME( '//goodhand-server/Shared Folders/GoodHand Data/Kipp CAD/K0333/K0333.08.stp', '2020-12-03T08:58:13', ( '' ), ( '' ), ' ', 'PARTsolutions', ' ' );
FILE_SCHEMA( ( 'AUTOMOTIVE_DESIGN { 1 0 10303 214 1 1 1 1 }' ) );
ENDSEC;
DATA;
#1 = MECHANICAL_DESIGN_GEOMETRIC_PRESENTATION_REPRESENTATION( ' ', ( #10, #11, #12, #13, #14, #15, #16, #17, #18, #19, #20 ), #6 );
#2 = PRODUCT_DEFINITION_CONTEXT( '', #21, 'design' );
#3 = APPLICATION_PROTOCOL_DEFINITION( 'international standard', 'automotive_design', 2001, #21 );
#4 = PRODUCT_CATEGORY_RELATIONSHIP( 'NONE', 'NONE', #22, #23 );
#5 = SHAPE_DEFINITION_REPRESENTATION( #24, #25 );
#6 =  ( GEOMETRIC_REPRESENTATION_CONTEXT( 3 )GLOBAL_UNCERTAINTY_ASSIGNED_CONTEXT( ( #28 ) )GLOBAL_UNIT_ASSIGNED_CONTEXT( ( #30, #31, #32 ) )REPRESENTATION_CONTEXT( 'NONE', 'WORKSPACE' ) );
#10 = STYLED_ITEM( '', ( #34 ), #35 );
#11 = STYLED_ITEM( '', ( #36 ), #37 );
#12 = STYLED_ITEM( '', ( #38 ), #39 );
#13 = STYLED_ITEM( '', ( #40 ), #41 );
#14 = STYLED_ITEM( '', ( #42 ), #43 );
#15 = STYLED_ITEM( '', ( #44 ), #45 );
#16 = STYLED_ITEM( '', ( #46 ), #47 );
#17 = STYLED_ITEM( '', ( #48 ), #49 );
#18 = STYLED_ITEM( '', ( #50 ), #51 );
#19 = STYLED_ITEM( '', ( #52 ), #53 );
#20 = STYLED_ITEM( '', ( #54 ), #55 );
#21 = APPLICATION_CONTEXT( 'core data for automotive mechanical design processes' );
#22 = PRODUCT_CATEGORY( 'part', 'NONE' );
#23 = PRODUCT_RELATED_PRODUCT_CATEGORY( 'detail', ' ', ( #56 ) );
#24 = PRODUCT_DEFINITION_SHAPE( 'NONE', 'NONE', #57 );
#25 = ADVANCED_BREP_SHAPE_REPRESENTATION( '_K0333.08', ( #58, #59 ), #6 );
#28 = UNCERTAINTY_MEASURE_WITH_UNIT( LENGTH_MEASURE( 0.00100000000000000 ), #30, '', '' );
#30 =  ( CONVERSION_BASED_UNIT( 'MILLIMETRE', #62 )LENGTH_UNIT(  )NAMED_UNIT( #65 ) );
#31 =  ( NAMED_UNIT( #67 )PLANE_ANGLE_UNIT(  )SI_UNIT( $, .RADIAN. ) );
#32 =  ( NAMED_UNIT( #67 )SI_UNIT( $, .STERADIAN. )SOLID_ANGLE_UNIT(  ) );
#34 = PRESENTATION_STYLE_ASSIGNMENT( ( #73 ) );
#35 = ADVANCED_FACE( '', ( #74, #75 ), #76, .F. );
#36 = PRESENTATION_STYLE_ASSIGNMENT( ( #77 ) );
#37 = ADVANCED_FACE( '', ( #78 ), #79, .F. );
#38 = PRESENTATION_STYLE_ASSIGNMENT( ( #80 ) );
#39 = ADVANCED_FACE( '', ( #81, #82 ), #83, .T. );
#40 = PRESENTATION_STYLE_ASSIGNMENT( ( #84 ) );
#41 = ADVANCED_FACE( '', ( #85 ), #86, .T. );
#42 = PRESENTATION_STYLE_ASSIGNMENT( ( #87 ) );
#43 = ADVANCED_FACE( '', ( #88, #89 ), #90, .F. );
#44 = PRESENTATION_STYLE_ASSIGNMENT( ( #91 ) );
#45 = ADVANCED_FACE( '', ( #92, #93 ), #94, .T. );
#46 = PRESENTATION_STYLE_ASSIGNMENT( ( #95 ) );
#47 = ADVANCED_FACE( '', ( #96, #97 ), #98, .T. );
#48 = PRESENTATION_STYLE_ASSIGNMENT( ( #99 ) );
#49 = ADVANCED_FACE( '', ( #100, #101 ), #102, .T. );
#50 = PRESENTATION_STYLE_ASSIGNMENT( ( #103 ) );
#51 = ADVANCED_FACE( '', ( #104, #105 ), #106, .F. );
#52 = PRESENTATION_STYLE_ASSIGNMENT( ( #107 ) );
#53 = ADVANCED_FACE( '', ( #108, #109 ), #110, .T. );
#54 = PRESENTATION_STYLE_ASSIGNMENT( ( #111 ) );
#55 = ADVANCED_FACE( '', ( #112, #113 ), #114, .F. );
#56 = PRODUCT( '_K0333.08', '_K0333.08', 'PART-_K0333.08-DESC', ( #115 ) );
#57 = PRODUCT_DEFINITION( 'NONE', 'NONE', #116, #2 );
#58 = BREP_WITH_VOIDS( '_K0333.08', #117, ( #118 ) );
#59 = AXIS2_PLACEMENT_3D( '', #119, #120, #121 );
#62 = LENGTH_MEASURE_WITH_UNIT( LENGTH_MEASURE( 1.00000000000000 ), #122 );
#65 = DIMENSIONAL_EXPONENTS( 1.00000000000000, 0.000000000000000, 0.000000000000000, 0.000000000000000, 0.000000000000000, 0.000000000000000, 0.000000000000000 );
#67 = DIMENSIONAL_EXPONENTS( 0.000000000000000, 0.000000000000000, 0.000000000000000, 0.000000000000000, 0.000000000000000, 0.000000000000000, 0.000000000000000 );
#73 = SURFACE_STYLE_USAGE( .BOTH., #123 );
#74 = FACE_OUTER_BOUND( '', #124, .T. );
#75 = FACE_OUTER_BOUND( '', #125, .T. );
#76 = CYLINDRICAL_SURFACE( '', #126, 3.24000000000000 );
#77 = SURFACE_STYLE_USAGE( .BOTH., #127 );
#78 = FACE_OUTER_BOUND( '', #128, .T. );
#79 = PLANE( '', #129 );
#80 = SURFACE_STYLE_USAGE( .BOTH., #130 );
#81 = FACE_OUTER_BOUND( '', #131, .T. );
#82 = FACE_OUTER_BOUND( '', #132, .T. );
#83 = CYLINDRICAL_SURFACE( '', #133, 4.25000000000000 );
#84 = SURFACE_STYLE_USAGE( .BOTH., #134 );
#85 = FACE_OUTER_BOUND( '', #135, .T. );
#86 = PLANE( '', #136 );
#87 = SURFACE_STYLE_USAGE( .BOTH., #137 );
#88 = FACE_OUTER_BOUND( '', #138, .T. );
#89 = FACE_OUTER_BOUND( '', #139, .T. );
#90 = CYLINDRICAL_SURFACE( '', #140, 3.24000000000000 );
#91 = SURFACE_STYLE_USAGE( .BOTH., #141 );
#92 = FACE_BOUND( '', #142, .T. );
#93 = FACE_OUTER_BOUND( '', #143, .T. );
#94 = SPHERICAL_SURFACE( '', #144, 3.25000000000000 );
#95 = SURFACE_STYLE_USAGE( .BOTH., #145 );
#96 = FACE_OUTER_BOUND( '', #146, .T. );
#97 = FACE_OUTER_BOUND( '', #147, .T. );
#98 = CYLINDRICAL_SURFACE( '', #148, 4.00000000000000 );
#99 = SURFACE_STYLE_USAGE( .BOTH., #149 );
#100 = FACE_OUTER_BOUND( '', #150, .T. );
#101 = FACE_BOUND( '', #151, .T. );
#102 = CONICAL_SURFACE( '', #152, 3.82679491920000, 0.523598775600000 );
#103 = SURFACE_STYLE_USAGE( .BOTH., #153 );
#104 = FACE_BOUND( '', #154, .T. );
#105 = FACE_OUTER_BOUND( '', #155, .T. );
#106 = PLANE( '', #156 );
#107 = SURFACE_STYLE_USAGE( .BOTH., #157 );
#108 = FACE_BOUND( '', #158, .T. );
#109 = FACE_OUTER_BOUND( '', #159, .T. );
#110 = SPHERICAL_SURFACE( '', #160, 3.25000000000000 );
#111 = SURFACE_STYLE_USAGE( .BOTH., #161 );
#112 = FACE_OUTER_BOUND( '', #162, .T. );
#113 = FACE_BOUND( '', #163, .T. );
#114 = PLANE( '', #164 );
#115 = PRODUCT_CONTEXT( '', #21, 'mechanical' );
#116 = PRODUCT_DEFINITION_FORMATION_WITH_SPECIFIED_SOURCE( ' ', 'NONE', #56, .NOT_KNOWN. );
#117 = CLOSED_SHELL( '', ( #35, #51, #39, #55, #47, #49, #37, #53 ) );
#118 = ORIENTED_CLOSED_SHELL( '', *, #165, .T. );
#119 = CARTESIAN_POINT( '', ( 0.000000000000000, 0.000000000000000, 0.000000000000000 ) );
#120 = DIRECTION( '', ( 0.000000000000000, 0.000000000000000, 1.00000000000000 ) );
#121 = DIRECTION( '', ( 1.00000000000000, 0.000000000000000, 0.000000000000000 ) );
#122 =  ( LENGTH_UNIT(  )NAMED_UNIT( #65 )SI_UNIT( .MILLI., .METRE. ) );
#123 = SURFACE_SIDE_STYLE( '', ( #167 ) );
#124 = EDGE_LOOP( '', ( #168 ) );
#125 = EDGE_LOOP( '', ( #169 ) );
#126 = AXIS2_PLACEMENT_3D( '', #170, #171, #172 );
#127 = SURFACE_SIDE_STYLE( '', ( #173 ) );
#128 = EDGE_LOOP( '', ( #174 ) );
#129 = AXIS2_PLACEMENT_3D( '', #175, #176, #177 );
#130 = SURFACE_SIDE_STYLE( '', ( #178 ) );
#131 = EDGE_LOOP( '', ( #179 ) );
#132 = EDGE_LOOP( '', ( #180 ) );
#133 = AXIS2_PLACEMENT_3D( '', #181, #182, #183 );
#134 = SURFACE_SIDE_STYLE( '', ( #184 ) );
#135 = EDGE_LOOP( '', ( #185 ) );
#136 = AXIS2_PLACEMENT_3D( '', #186, #187, #188 );
#137 = SURFACE_SIDE_STYLE( '', ( #189 ) );
#138 = EDGE_LOOP( '', ( #190 ) );
#139 = EDGE_LOOP( '', ( #191 ) );
#140 = AXIS2_PLACEMENT_3D( '', #192, #193, #194 );
#141 = SURFACE_SIDE_STYLE( '', ( #195 ) );
#142 = VERTEX_LOOP( '', #196 );
#143 = EDGE_LOOP( '', ( #197 ) );
#144 = AXIS2_PLACEMENT_3D( '', #198, #199, #200 );
#145 = SURFACE_SIDE_STYLE( '', ( #201 ) );
#146 = EDGE_LOOP( '', ( #202 ) );
#147 = EDGE_LOOP( '', ( #203 ) );
#148 = AXIS2_PLACEMENT_3D( '', #204, #205, #206 );
#149 = SURFACE_SIDE_STYLE( '', ( #207 ) );
#150 = EDGE_LOOP( '', ( #208 ) );
#151 = EDGE_LOOP( '', ( #209 ) );
#152 = AXIS2_PLACEMENT_3D( '', #210, #211, #212 );
#153 = SURFACE_SIDE_STYLE( '', ( #213 ) );
#154 = EDGE_LOOP( '', ( #214 ) );
#155 = EDGE_LOOP( '', ( #215 ) );
#156 = AXIS2_PLACEMENT_3D( '', #216, #217, #218 );
#157 = SURFACE_SIDE_STYLE( '', ( #219 ) );
#158 = VERTEX_LOOP( '', #220 );
#159 = EDGE_LOOP( '', ( #221 ) );
#160 = AXIS2_PLACEMENT_3D( '', #222, #223, #224 );
#161 = SURFACE_SIDE_STYLE( '', ( #225 ) );
#162 = EDGE_LOOP( '', ( #226 ) );
#163 = EDGE_LOOP( '', ( #227 ) );
#164 = AXIS2_PLACEMENT_3D( '', #228, #229, #230 );
#165 = CLOSED_SHELL( '', ( #41, #43, #45 ) );
#167 = SURFACE_STYLE_FILL_AREA( #231 );
#168 = ORIENTED_EDGE( '', *, *, #232, .F. );
#169 = ORIENTED_EDGE( '', *, *, #233, .T. );
#170 = CARTESIAN_POINT( '', ( 0.000000000000000, 1.50000000000000, 0.000000000000000 ) );
#171 = DIRECTION( '', ( -0.000000000000000, 1.00000000000000, 0.000000000000000 ) );
#172 = DIRECTION( '', ( 0.000000000000000, 0.000000000000000, -1.00000000000000 ) );
#173 = SURFACE_STYLE_FILL_AREA( #234 );
#174 = ORIENTED_EDGE( '', *, *, #235, .F. );
#175 = CARTESIAN_POINT( '', ( 1.47411496360992E-48, 2.40741243048404E-32, 0.000000000000000 ) );
#176 = DIRECTION( '', ( 6.12323399573677E-17, 1.00000000000000, -0.000000000000000 ) );
#177 = DIRECTION( '', ( -1.00000000000000, 6.12323399573677E-17, 0.000000000000000 ) );
#178 = SURFACE_STYLE_FILL_AREA( #236 );
#179 = ORIENTED_EDGE( '', *, *, #237, .F. );
#180 = ORIENTED_EDGE( '', *, *, #238, .T. );
#181 = CARTESIAN_POINT( '', ( 5.51091059616309E-16, 9.00000000000000, 0.000000000000000 ) );
#182 = DIRECTION( '', ( -6.12323399573676E-17, -1.00000000000000, 0.000000000000000 ) );
#183 = DIRECTION( '', ( -1.00000000000000, 6.12323399573677E-17, 0.000000000000000 ) );
#184 = SURFACE_STYLE_FILL_AREA( #239 );
#185 = ORIENTED_EDGE( '', *, *, #240, .F. );
#186 = CARTESIAN_POINT( '', ( 3.24000000000000, 1.50000000000000, 0.000000000000000 ) );
#187 = DIRECTION( '', ( 0.000000000000000, 1.00000000000000, 0.000000000000000 ) );
#188 = DIRECTION( '', ( 0.000000000000000, -0.000000000000000, 1.00000000000000 ) );
#189 = SURFACE_STYLE_FILL_AREA( #241 );
#190 = ORIENTED_EDGE( '', *, *, #240, .T. );
#191 = ORIENTED_EDGE( '', *, *, #242, .F. );
#192 = CARTESIAN_POINT( '', ( 0.000000000000000, 1.50000000000000, 0.000000000000000 ) );
#193 = DIRECTION( '', ( -0.000000000000000, 1.00000000000000, 0.000000000000000 ) );
#194 = DIRECTION( '', ( 0.000000000000000, 0.000000000000000, -1.00000000000000 ) );
#195 = SURFACE_STYLE_FILL_AREA( #243 );
#196 = VERTEX_POINT( '', #244 );
#197 = ORIENTED_EDGE( '', *, *, #242, .T. );
#198 = CARTESIAN_POINT( '', ( -3.46944695195361E-15, 7.54999999999999, 0.000000000000000 ) );
#199 = DIRECTION( '', ( 0.000000000000000, -1.00000000000000, 0.000000000000000 ) );
#200 = DIRECTION( '', ( 1.00000000000000, 0.000000000000000, 0.000000000000000 ) );
#201 = SURFACE_STYLE_FILL_AREA( #245 );
#202 = ORIENTED_EDGE( '', *, *, #246, .F. );
#203 = ORIENTED_EDGE( '', *, *, #247, .T. );
#204 = CARTESIAN_POINT( '', ( 5.51091059616309E-16, 9.00000000000000, 0.000000000000000 ) );
#205 = DIRECTION( '', ( -6.12323399573677E-17, -1.00000000000000, 0.000000000000000 ) );
#206 = DIRECTION( '', ( -1.00000000000000, 6.12323399573677E-17, 0.000000000000000 ) );
#207 = SURFACE_STYLE_FILL_AREA( #248 );
#208 = ORIENTED_EDGE( '', *, *, #247, .F. );
#209 = ORIENTED_EDGE( '', *, *, #235, .T. );
#210 = CARTESIAN_POINT( '', ( 0.000000000000000, 0.000000000000000, 0.000000000000000 ) );
#211 = DIRECTION( '', ( 6.12323399573677E-17, 1.00000000000000, -0.000000000000000 ) );
#212 = DIRECTION( '', ( -1.00000000000000, 6.12323399573677E-17, 0.000000000000000 ) );
#213 = SURFACE_STYLE_FILL_AREA( #249 );
#214 = ORIENTED_EDGE( '', *, *, #233, .F. );
#215 = ORIENTED_EDGE( '', *, *, #237, .T. );
#216 = CARTESIAN_POINT( '', ( -4.25000000000000, 9.00000000000000, 0.000000000000000 ) );
#217 = DIRECTION( '', ( -6.12323399573677E-17, -1.00000000000000, 0.000000000000000 ) );
#218 = DIRECTION( '', ( 1.00000000000000, -6.12323399573677E-17, 0.000000000000000 ) );
#219 = SURFACE_STYLE_FILL_AREA( #250 );
#220 = VERTEX_POINT( '', #251 );
#221 = ORIENTED_EDGE( '', *, *, #232, .T. );
#222 = CARTESIAN_POINT( '', ( -3.46944695195361E-15, 7.54999999999999, 0.000000000000000 ) );
#223 = DIRECTION( '', ( 0.000000000000000, -1.00000000000000, 0.000000000000000 ) );
#224 = DIRECTION( '', ( 1.00000000000000, 0.000000000000000, 0.000000000000000 ) );
#225 = SURFACE_STYLE_FILL_AREA( #252 );
#226 = ORIENTED_EDGE( '', *, *, #238, .F. );
#227 = ORIENTED_EDGE( '', *, *, #246, .T. );
#228 = CARTESIAN_POINT( '', ( -4.00000000000000, 8.00000000000000, 0.000000000000000 ) );
#229 = DIRECTION( '', ( 6.12323399573677E-17, 1.00000000000000, -0.000000000000000 ) );
#230 = DIRECTION( '', ( -1.00000000000000, 6.12323399573677E-17, 0.000000000000000 ) );
#231 = FILL_AREA_STYLE( '', ( #253 ) );
#232 = EDGE_CURVE( '', #254, #254, #255, .F. );
#233 = EDGE_CURVE( '', #256, #256, #257, .F. );
#234 = FILL_AREA_STYLE( '', ( #258 ) );
#235 = EDGE_CURVE( '', #259, #259, #260, .T. );
#236 = FILL_AREA_STYLE( '', ( #261 ) );
#237 = EDGE_CURVE( '', #262, #262, #263, .T. );
#238 = EDGE_CURVE( '', #264, #264, #265, .T. );
#239 = FILL_AREA_STYLE( '', ( #266 ) );
#240 = EDGE_CURVE( '', #267, #267, #268, .T. );
#241 = FILL_AREA_STYLE( '', ( #269 ) );
#242 = EDGE_CURVE( '', #270, #270, #271, .F. );
#243 = FILL_AREA_STYLE( '', ( #272 ) );
#244 = CARTESIAN_POINT( '', ( -3.27044184709217E-15, 4.29999999999999, 0.000000000000000 ) );
#245 = FILL_AREA_STYLE( '', ( #273 ) );
#246 = EDGE_CURVE( '', #274, #274, #275, .T. );
#247 = EDGE_CURVE( '', #276, #276, #277, .T. );
#248 = FILL_AREA_STYLE( '', ( #278 ) );
#249 = FILL_AREA_STYLE( '', ( #279 ) );
#250 = FILL_AREA_STYLE( '', ( #280 ) );
#251 = CARTESIAN_POINT( '', ( -3.27044184709217E-15, 10.8000000000000, 0.000000000000000 ) );
#252 = FILL_AREA_STYLE( '', ( #281 ) );
#253 = FILL_AREA_STYLE_COLOUR( '', #282 );
#254 = VERTEX_POINT( '', #283 );
#255 = CIRCLE( '', #284, 3.24000000000000 );
#256 = VERTEX_POINT( '', #285 );
#257 = CIRCLE( '', #286, 3.24000000000000 );
#258 = FILL_AREA_STYLE_COLOUR( '', #287 );
#259 = VERTEX_POINT( '', #288 );
#260 = CIRCLE( '', #289, 3.82679491920000 );
#261 = FILL_AREA_STYLE_COLOUR( '', #290 );
#262 = VERTEX_POINT( '', #291 );
#263 = CIRCLE( '', #292, 4.25000000000000 );
#264 = VERTEX_POINT( '', #293 );
#265 = CIRCLE( '', #294, 4.25000000000000 );
#266 = FILL_AREA_STYLE_COLOUR( '', #295 );
#267 = VERTEX_POINT( '', #296 );
#268 = CIRCLE( '', #297, 3.24000000000000 );
#269 = FILL_AREA_STYLE_COLOUR( '', #298 );
#270 = VERTEX_POINT( '', #299 );
#271 = CIRCLE( '', #300, 3.24000000000000 );
#272 = FILL_AREA_STYLE_COLOUR( '', #301 );
#273 = FILL_AREA_STYLE_COLOUR( '', #302 );
#274 = VERTEX_POINT( '', #303 );
#275 = CIRCLE( '', #304, 4.00000000000000 );
#276 = VERTEX_POINT( '', #305 );
#277 = CIRCLE( '', #306, 4.00000000000000 );
#278 = FILL_AREA_STYLE_COLOUR( '', #307 );
#279 = FILL_AREA_STYLE_COLOUR( '', #308 );
#280 = FILL_AREA_STYLE_COLOUR( '', #309 );
#281 = FILL_AREA_STYLE_COLOUR( '', #310 );
#282 = COLOUR_RGB( '', 0.689999997600000, 0.689999997600000, 0.689999997600000 );
#283 = CARTESIAN_POINT( '', ( 0.000000000000000, 7.80475478405717, -3.24000000000000 ) );
#284 = AXIS2_PLACEMENT_3D( '', #311, #312, #313 );
#285 = CARTESIAN_POINT( '', ( 3.24000000000000, 9.00000000000000, 0.000000000000000 ) );
#286 = AXIS2_PLACEMENT_3D( '', #314, #315, #316 );
#287 = COLOUR_RGB( '', 0.689999997600000, 0.689999997600000, 0.689999997600000 );
#288 = CARTESIAN_POINT( '', ( -3.82679491924311, 2.34323607442222E-16, 0.000000000000000 ) );
#289 = AXIS2_PLACEMENT_3D( '', #317, #318, #319 );
#290 = COLOUR_RGB( '', 0.689999997600000, 0.689999997600000, 0.689999997600000 );
#291 = CARTESIAN_POINT( '', ( -4.25000000000000, 9.00000000000000, 0.000000000000000 ) );
#292 = AXIS2_PLACEMENT_3D( '', #320, #321, #322 );
#293 = CARTESIAN_POINT( '', ( -4.25000000000000, 8.00000000000000, 0.000000000000000 ) );
#294 = AXIS2_PLACEMENT_3D( '', #323, #324, #325 );
#295 = COLOUR_RGB( '', 0.689999997600000, 0.689999997600000, 0.689999997600000 );
#296 = CARTESIAN_POINT( '', ( 0.000000000000000, 1.50000000000000, -3.24000000000000 ) );
#297 = AXIS2_PLACEMENT_3D( '', #326, #327, #328 );
#298 = COLOUR_RGB( '', 0.689999997600000, 0.689999997600000, 0.689999997600000 );
#299 = CARTESIAN_POINT( '', ( 0.000000000000000, 7.29524521594282, 3.24000000000000 ) );
#300 = AXIS2_PLACEMENT_3D( '', #329, #330, #331 );
#301 = COLOUR_RGB( '', 0.689999997600000, 0.689999997600000, 0.689999997600000 );
#302 = COLOUR_RGB( '', 0.689999997600000, 0.689999997600000, 0.689999997600000 );
#303 = CARTESIAN_POINT( '', ( -4.00000000000000, 8.00000000000000, 0.000000000000000 ) );
#304 = AXIS2_PLACEMENT_3D( '', #332, #333, #334 );
#305 = CARTESIAN_POINT( '', ( -4.00000000000000, 0.300000000000000, 0.000000000000000 ) );
#306 = AXIS2_PLACEMENT_3D( '', #335, #336, #337 );
#307 = COLOUR_RGB( '', 0.689999997600000, 0.689999997600000, 0.689999997600000 );
#308 = COLOUR_RGB( '', 0.689999997600000, 0.689999997600000, 0.689999997600000 );
#309 = COLOUR_RGB( '', 0.689999997600000, 0.689999997600000, 0.689999997600000 );
#310 = COLOUR_RGB( '', 0.689999997600000, 0.689999997600000, 0.689999997600000 );
#311 = CARTESIAN_POINT( '', ( 0.000000000000000, 7.80475478405717, 0.000000000000000 ) );
#312 = DIRECTION( '', ( 0.000000000000000, -1.00000000000000, -0.000000000000000 ) );
#313 = DIRECTION( '', ( 0.000000000000000, 0.000000000000000, -1.00000000000000 ) );
#314 = CARTESIAN_POINT( '', ( 0.000000000000000, 9.00000000000000, 0.000000000000000 ) );
#315 = DIRECTION( '', ( -6.12323399573677E-17, -1.00000000000000, 0.000000000000000 ) );
#316 = DIRECTION( '', ( 1.00000000000000, -6.12323399573677E-17, 0.000000000000000 ) );
#317 = CARTESIAN_POINT( '', ( 0.000000000000000, 0.000000000000000, 0.000000000000000 ) );
#318 = DIRECTION( '', ( 6.12323399573677E-17, 1.00000000000000, -0.000000000000000 ) );
#319 = DIRECTION( '', ( -1.00000000000000, 6.12323399573677E-17, 0.000000000000000 ) );
#320 = CARTESIAN_POINT( '', ( 5.51091059616309E-16, 9.00000000000000, 0.000000000000000 ) );
#321 = DIRECTION( '', ( 6.12323399573676E-17, 1.00000000000000, -0.000000000000000 ) );
#322 = DIRECTION( '', ( -1.00000000000000, 6.12323399573677E-17, 0.000000000000000 ) );
#323 = CARTESIAN_POINT( '', ( 4.89858719658941E-16, 8.00000000000000, 0.000000000000000 ) );
#324 = DIRECTION( '', ( 6.12323399573676E-17, 1.00000000000000, -0.000000000000000 ) );
#325 = DIRECTION( '', ( -1.00000000000000, 6.12323399573677E-17, 0.000000000000000 ) );
#326 = CARTESIAN_POINT( '', ( 0.000000000000000, 1.50000000000000, 0.000000000000000 ) );
#327 = DIRECTION( '', ( 0.000000000000000, -1.00000000000000, -0.000000000000000 ) );
#328 = DIRECTION( '', ( 0.000000000000000, 0.000000000000000, -1.00000000000000 ) );
#329 = CARTESIAN_POINT( '', ( 0.000000000000000, 7.29524521594282, 0.000000000000000 ) );
#330 = DIRECTION( '', ( 0.000000000000000, 1.00000000000000, 0.000000000000000 ) );
#331 = DIRECTION( '', ( 0.000000000000000, -0.000000000000000, 1.00000000000000 ) );
#332 = CARTESIAN_POINT( '', ( 4.89858719658941E-16, 8.00000000000000, 0.000000000000000 ) );
#333 = DIRECTION( '', ( 6.12323399573677E-17, 1.00000000000000, -0.000000000000000 ) );
#334 = DIRECTION( '', ( -1.00000000000000, 6.12323399573677E-17, 0.000000000000000 ) );
#335 = CARTESIAN_POINT( '', ( 1.83697019872103E-17, 0.300000000000000, 0.000000000000000 ) );
#336 = DIRECTION( '', ( 6.12323399573677E-17, 1.00000000000000, -0.000000000000000 ) );
#337 = DIRECTION( '', ( -1.00000000000000, 6.12323399573677E-17, 0.000000000000000 ) );
ENDSEC;
END-ISO-10303-21;
