ISO-10303-21;
HEADER;
/****************************************************************
 * Generated by software with PDE/Lib inside                    *
 * PDElib Version v51a, created Fri 12/12/2008                  *
 * International Technegroup Inc. (www.iti-oh.com)              *
 ****************************************************************/
FILE_DESCRIPTION((''),'2;1');
FILE_NAME('S:\\Drawings\\Web Drawings Completed with mm\\air_amplifiers\\adjustable_air_amplifiers\\3D\\ss\\6034-3D.stp','2010-05-20T16:43:00',('michael witt'),(''),'Autodesk Inventor 2010','Autodesk Inventor 2010','');
FILE_SCHEMA(('AUTOMOTIVE_DESIGN { 1 0 10303 214 1 1 1 1 }'));
ENDSEC;
DATA;
#5=APPLICATION_CONTEXT('automotive design');
#6=APPLICATION_PROTOCOL_DEFINITION('International Standard','automotive_design',2001,#5);
#7=PRODUCT_CONTEXT('',#5,'mechanical');
#8=PRODUCT('Part84','Part84',$,(#7));
#9=PRODUCT_RELATED_PRODUCT_CATEGORY('part',$,(#8));
#10=PRODUCT_DEFINITION_FORMATION('',$,#8);
#11=PRODUCT_DEFINITION_CONTEXT('part definition',#5,'design');
#12=PRODUCT_DEFINITION('',$,#10,#11);
#18=(NAMED_UNIT(*)PLANE_ANGLE_UNIT()SI_UNIT($,.RADIAN.));
#19=DIMENSIONAL_EXPONENTS(0.0,0.0,0.0,0.0,0.0,0.0,0.0);
#20=PLANE_ANGLE_MEASURE_WITH_UNIT(PLANE_ANGLE_MEASURE(0.017453292500000),#18);
#24=(CONVERSION_BASED_UNIT('DEGREE',#20)NAMED_UNIT(#19)PLANE_ANGLE_UNIT());
#28=(NAMED_UNIT(*)SI_UNIT($,.STERADIAN.)SOLID_ANGLE_UNIT());
#32=(LENGTH_UNIT()NAMED_UNIT(*)SI_UNIT(.CENTI.,.METRE.));
#33=DIMENSIONAL_EXPONENTS(1.0,0.0,0.0,0.0,0.0,0.0,0.0);
#34=LENGTH_MEASURE_WITH_UNIT(LENGTH_MEASURE(2.540000000000000),#32);
#38=(CONVERSION_BASED_UNIT('INCH',#34)LENGTH_UNIT()NAMED_UNIT(#33));
#40=UNCERTAINTY_MEASURE_WITH_UNIT(LENGTH_MEASURE(0.000393700787402),#38,'DISTANCE_ACCURACY_VALUE','');
#42=(GEOMETRIC_REPRESENTATION_CONTEXT(3)GLOBAL_UNCERTAINTY_ASSIGNED_CONTEXT((#40))GLOBAL_UNIT_ASSIGNED_CONTEXT((#24,#28,#38))REPRESENTATION_CONTEXT('None','None'));
#43=AXIS2_PLACEMENT_3D('',#44,#45,#46);
#44=CARTESIAN_POINT('',(0.0,0.0,0.0));
#45=DIRECTION('',(0.0,0.0,1.0));
#46=DIRECTION('',(1.0,0.0,0.0));
#47=SHAPE_REPRESENTATION('',(#43),#42);
#48=PRODUCT_DEFINITION_SHAPE('','',#12);
#49=SHAPE_DEFINITION_REPRESENTATION(#48,#47);
#55=(NAMED_UNIT(*)PLANE_ANGLE_UNIT()SI_UNIT($,.RADIAN.));
#56=DIMENSIONAL_EXPONENTS(0.0,0.0,0.0,0.0,0.0,0.0,0.0);
#57=PLANE_ANGLE_MEASURE_WITH_UNIT(PLANE_ANGLE_MEASURE(0.017453292500000),#55);
#61=(CONVERSION_BASED_UNIT('DEGREE',#57)NAMED_UNIT(#56)PLANE_ANGLE_UNIT());
#65=(NAMED_UNIT(*)SI_UNIT($,.STERADIAN.)SOLID_ANGLE_UNIT());
#69=(LENGTH_UNIT()NAMED_UNIT(*)SI_UNIT(.MILLI.,.METRE.));
#71=UNCERTAINTY_MEASURE_WITH_UNIT(LENGTH_MEASURE(0.000001000000000),#69,'DISTANCE_ACCURACY_VALUE','');
#73=(GEOMETRIC_REPRESENTATION_CONTEXT(3)GLOBAL_UNCERTAINTY_ASSIGNED_CONTEXT((#71))GLOBAL_UNIT_ASSIGNED_CONTEXT((#61,#65,#69))REPRESENTATION_CONTEXT('','3D'));
#74=CARTESIAN_POINT('',(10.984732326077681,-1.000000000000000,0.0));
#75=DIRECTION('',(0.0,1.0,0.0));
#76=DIRECTION('',(0.0,0.0,1.0));
#77=AXIS2_PLACEMENT_3D('',#74,#75,#76);
#78=PLANE('',#77);
#79=CARTESIAN_POINT('',(10.774732326077684,-1.000000000000000,0.0));
#80=VERTEX_POINT('',#79);
#81=CARTESIAN_POINT('',(11.194732326077684,-1.000000000000000,0.0));
#82=DIRECTION('',(0.0,-1.0,0.0));
#83=DIRECTION('',(-1.0,0.0,0.0));
#84=AXIS2_PLACEMENT_3D('',#81,#82,#83);
#85=CIRCLE('',#84,0.420000000000000);
#86=EDGE_CURVE('',#80,#80,#85,.T.);
#87=ORIENTED_EDGE('',*,*,#86,.T.);
#88=EDGE_LOOP('',(#87));
#89=FACE_OUTER_BOUND('',#88,.T.);
#90=ADVANCED_FACE('',(#89),#78,.F.);
#91=CARTESIAN_POINT('',(11.194732326077684,-1.375000000000000,0.0));
#92=DIRECTION('',(0.0,-1.0,0.0));
#93=DIRECTION('',(-1.0,0.0,0.0));
#94=AXIS2_PLACEMENT_3D('',#91,#92,#93);
#95=CYLINDRICAL_SURFACE('',#94,0.420000000000000);
#96=CARTESIAN_POINT('',(11.194732326077684,-1.461950577069269,0.420000000000000));
#97=VERTEX_POINT('',#96);
#98=CARTESIAN_POINT('',(11.194732326077686,-1.461950577069269,0.420000000000000));
#99=CARTESIAN_POINT('',(11.247577025022256,-1.461950577069265,0.420000000000000));
#100=CARTESIAN_POINT('',(11.303874102341519,-1.463826105036072,0.409418417000130));
#101=CARTESIAN_POINT('',(11.407322861777315,-1.470564298474507,0.366525085736148));
#102=CARTESIAN_POINT('',(11.454483332942917,-1.475325713285108,0.334218689331467));
#103=CARTESIAN_POINT('',(11.528949988291108,-1.484234987819483,0.259752033983274));
#104=CARTESIAN_POINT('',(11.561257190315262,-1.488966909591067,0.212591122038801));
#105=CARTESIAN_POINT('',(11.604151106468493,-1.495637385409806,0.109140847713696));
#106=CARTESIAN_POINT('',(11.614732326077680,-1.497483088949334,0.052843241191577));
#107=CARTESIAN_POINT('',(11.614732326077682,-1.497483088949334,-0.052843241191577));
#108=CARTESIAN_POINT('',(11.604151106468493,-1.495637385409806,-0.109140847713695));
#109=CARTESIAN_POINT('',(11.561257190315262,-1.488966909591067,-0.212591122038800));
#110=CARTESIAN_POINT('',(11.528949988291110,-1.484234987819483,-0.259752033983273));
#111=CARTESIAN_POINT('',(11.454483332942917,-1.475325713285108,-0.334218689331467));
#112=CARTESIAN_POINT('',(11.407322861777315,-1.470564298474507,-0.366525085736148));
#113=CARTESIAN_POINT('',(11.303874102341519,-1.463826105036072,-0.409418417000130));
#114=CARTESIAN_POINT('',(11.247577025022254,-1.461950577069265,-0.420000000000000));
#115=CARTESIAN_POINT('',(11.141887627133112,-1.461950577069274,-0.420000000000000));
#116=CARTESIAN_POINT('',(11.085590549813846,-1.463826105036091,-0.409418417000131));
#117=CARTESIAN_POINT('',(10.982141790378048,-1.470564298474546,-0.366525085736147));
#118=CARTESIAN_POINT('',(10.934981319212451,-1.475325713285155,-0.334218689331466));
#119=CARTESIAN_POINT('',(10.860514663864256,-1.484234987819543,-0.259752033983273));
#120=CARTESIAN_POINT('',(10.828207461840105,-1.488966909591132,-0.212591122038800));
#121=CARTESIAN_POINT('',(10.785313545686872,-1.495637385409879,-0.109140847713695));
#122=CARTESIAN_POINT('',(10.774732326077684,-1.497483088949409,-0.052843241191577));
#123=CARTESIAN_POINT('',(10.774732326077684,-1.497483088949409,0.052843241191577));
#124=CARTESIAN_POINT('',(10.785313545686872,-1.495637385409879,0.109140847713695));
#125=CARTESIAN_POINT('',(10.828207461840105,-1.488966909591132,0.212591122038800));
#126=CARTESIAN_POINT('',(10.860514663864256,-1.484234987819543,0.259752033983273));
#127=CARTESIAN_POINT('',(10.934981319212451,-1.475325713285155,0.334218689331466));
#128=CARTESIAN_POINT('',(10.982141790378048,-1.470564298474546,0.366525085736148));
#129=CARTESIAN_POINT('',(11.085590549813846,-1.463826105036092,0.409418417000131));
#130=CARTESIAN_POINT('',(11.141887627133112,-1.461950577069274,0.420000000000000));
#131=CARTESIAN_POINT('',(11.194732326077684,-1.461950577069269,0.420000000000000));
#132=B_SPLINE_CURVE_WITH_KNOTS('',3,(#98,#99,#100,#101,#102,#103,#104,#105,#106,#107,#108,#109,#110,#111,#112,#113,#114,#115,#116,#117,#118,#119,#120,#121,#122,#123,#124,#125,#126,#127,#128,#129,#130,#131),.UNSPECIFIED.,.T.,.U.,(4,2,2,2,2,2,2,2,2,2,2,2,2,2,2,2,4),(0.0,0.402676605957641,0.805353211915282,1.208018709795098,1.610684207674914,2.013349705554729,2.416015203434545,2.818691809392186,3.221368415349827,3.624045021307472,4.026721627265117,4.429387125144933,4.832052623024750,5.234718120904567,5.637383618784384,6.040060224742028,6.442736830699674),.UNSPECIFIED.);
#133=EDGE_CURVE('',#97,#97,#132,.T.);
#134=ORIENTED_EDGE('',*,*,#133,.F.);
#135=EDGE_LOOP('',(#134));
#136=FACE_OUTER_BOUND('',#135,.T.);
#137=ORIENTED_EDGE('',*,*,#86,.F.);
#138=EDGE_LOOP('',(#137));
#139=FACE_BOUND('',#138,.T.);
#140=ADVANCED_FACE('',(#136,#139),#95,.F.);
#141=CARTESIAN_POINT('',(8.223053319933994,0.0,0.0));
#142=DIRECTION('',(0.0,-1.0,0.0));
#143=DIRECTION('',(1.0,0.0,0.0));
#144=AXIS2_PLACEMENT_3D('',#141,#142,#143);
#145=CYLINDRICAL_SURFACE('',#144,0.125000000000000);
#146=CARTESIAN_POINT('',(8.223053319933994,-0.993573016783634,0.125000000000000));
#147=VERTEX_POINT('',#146);
#148=CARTESIAN_POINT('',(8.223053319933994,-0.993573016783634,0.125000000000000));
#149=CARTESIAN_POINT('',(8.238752992506971,-0.993573016783633,0.125000000000000));
#150=CARTESIAN_POINT('',(8.255496325750320,-0.993777301550395,0.121861578872254));
#151=CARTESIAN_POINT('',(8.286292530710050,-0.994515194917560,0.109103599083144));
#152=CARTESIAN_POINT('',(8.300345749847462,-0.995038154841438,0.099484265383169));
#153=CARTESIAN_POINT('',(8.322537579587083,-0.996019863590948,0.077292435643546));
#154=CARTESIAN_POINT('',(8.332156917660205,-0.996542377529100,0.063239213935714));
#155=CARTESIAN_POINT('',(8.344914900994711,-0.997279250847628,0.032443000649447));
#156=CARTESIAN_POINT('',(8.348053319933992,-0.997483088949709,0.015699664465462));
#157=CARTESIAN_POINT('',(8.348053319933992,-0.997483088949709,-0.015699664465462));
#158=CARTESIAN_POINT('',(8.344914900994711,-0.997279250847628,-0.032443000649446));
#159=CARTESIAN_POINT('',(8.332156917660203,-0.996542377529100,-0.063239213935712));
#160=CARTESIAN_POINT('',(8.322537579587083,-0.996019863590948,-0.077292435643546));
#161=CARTESIAN_POINT('',(8.300345749847462,-0.995038154841438,-0.099484265383169));
#162=CARTESIAN_POINT('',(8.286292530710050,-0.994515194917560,-0.109103599083144));
#163=CARTESIAN_POINT('',(8.255496325750320,-0.993777301550395,-0.121861578872254));
#164=CARTESIAN_POINT('',(8.238752992506971,-0.993573016783633,-0.125000000000000));
#165=CARTESIAN_POINT('',(8.207353647361014,-0.993573016783635,-0.125000000000000));
#166=CARTESIAN_POINT('',(8.190610314117668,-0.993777301550401,-0.121861578872254));
#167=CARTESIAN_POINT('',(8.159814109157937,-0.994515194917571,-0.109103599083144));
#168=CARTESIAN_POINT('',(8.145760890020524,-0.995038154841452,-0.099484265383168));
#169=CARTESIAN_POINT('',(8.123569060280900,-0.996019863590966,-0.077292435643546));
#170=CARTESIAN_POINT('',(8.113949722207780,-0.996542377529119,-0.063239213935712));
#171=CARTESIAN_POINT('',(8.101191738873274,-0.997279250847650,-0.032443000649446));
#172=CARTESIAN_POINT('',(8.098053319933992,-0.997483088949731,-0.015699664465462));
#173=CARTESIAN_POINT('',(8.098053319933992,-0.997483088949731,0.015699664465462));
#174=CARTESIAN_POINT('',(8.101191738873274,-0.997279250847650,0.032443000649446));
#175=CARTESIAN_POINT('',(8.113949722207780,-0.996542377529119,0.063239213935712));
#176=CARTESIAN_POINT('',(8.123569060280900,-0.996019863590966,0.077292435643546));
#177=CARTESIAN_POINT('',(8.145760890020524,-0.995038154841452,0.099484265383168));
#178=CARTESIAN_POINT('',(8.159814109157937,-0.994515194917571,0.109103599083144));
#179=CARTESIAN_POINT('',(8.190610314117668,-0.993777301550401,0.121861578872254));
#180=CARTESIAN_POINT('',(8.207353647361014,-0.993573016783636,0.125000000000000));
#181=CARTESIAN_POINT('',(8.223053319933994,-0.993573016783634,0.125000000000000));
#182=B_SPLINE_CURVE_WITH_KNOTS('',3,(#148,#149,#150,#151,#152,#153,#154,#155,#156,#157,#158,#159,#160,#161,#162,#163,#164,#165,#166,#167,#168,#169,#170,#171,#172,#173,#174,#175,#176,#177,#178,#179,#180,#181),.UNSPECIFIED.,.T.,.U.,(4,2,2,2,2,2,2,2,2,2,2,2,2,2,2,2,4),(0.0,0.119631505006102,0.239263010012204,0.358894453239023,0.478525896465842,0.598157339692661,0.717788782919480,0.837420287925582,0.957051792931684,1.076683297937787,1.196314802943889,1.315946246170708,1.435577689397527,1.555209132624346,1.674840575851166,1.794472080857268,1.914103585863370),.UNSPECIFIED.);
#183=EDGE_CURVE('',#147,#147,#182,.T.);
#184=ORIENTED_EDGE('',*,*,#183,.F.);
#185=EDGE_LOOP('',(#184));
#186=FACE_OUTER_BOUND('',#185,.T.);
#187=CARTESIAN_POINT('',(8.224091694445967,-0.840730021213474,-0.124995687039085));
#188=VERTEX_POINT('',#187);
#189=CARTESIAN_POINT('',(8.224091694445967,-0.840730021213474,-0.124995687039085));
#190=CARTESIAN_POINT('',(8.239660832200761,-0.838822751798700,-0.124866349809930));
#191=CARTESIAN_POINT('',(8.256282879220024,-0.837004242061242,-0.121639909403998));
#192=CARTESIAN_POINT('',(8.286874207014357,-0.834048355309163,-0.108753690463889));
#193=CARTESIAN_POINT('',(8.300841830237767,-0.832899949011244,-0.099092509361288));
#194=CARTESIAN_POINT('',(8.322829470741464,-0.831261513729975,-0.076892711873675));
#195=CARTESIAN_POINT('',(8.332340958818437,-0.830657229676196,-0.062894834581585));
#196=CARTESIAN_POINT('',(8.344952919959097,-0.829903584150724,-0.032249584936216));
#197=CARTESIAN_POINT('',(8.348053319933992,-0.829742738385335,-0.015602466008289));
#198=CARTESIAN_POINT('',(8.348053319933992,-0.829742738385335,0.015602466008289));
#199=CARTESIAN_POINT('',(8.344952919959097,-0.829903584150724,0.032249584936216));
#200=CARTESIAN_POINT('',(8.332340958818437,-0.830657229676196,0.062894834581585));
#201=CARTESIAN_POINT('',(8.322829470741464,-0.831261513729975,0.076892711873675));
#202=CARTESIAN_POINT('',(8.300841830237767,-0.832899949011244,0.099092509361288));
#203=CARTESIAN_POINT('',(8.286874207014357,-0.834048355309163,0.108753690463889));
#204=CARTESIAN_POINT('',(8.256282879220024,-0.837004242061242,0.121639909403998));
#205=CARTESIAN_POINT('',(8.239660832200761,-0.838822751798700,0.124866349809930));
#206=CARTESIAN_POINT('',(8.208295519695623,-0.842665103389909,0.125126910328752));
#207=CARTESIAN_POINT('',(8.191448768005044,-0.844952645746008,0.122092463462900));
#208=CARTESIAN_POINT('',(8.160427562988462,-0.849559158782685,0.109468865107785));
#209=CARTESIAN_POINT('',(8.146251209938868,-0.851866808662927,0.099880253505473));
#210=CARTESIAN_POINT('',(8.123871046242735,-0.855679093118397,0.077685235931843));
#211=CARTESIAN_POINT('',(8.114156173130802,-0.857438490804405,0.063617276995389));
#212=CARTESIAN_POINT('',(8.101246391408720,-0.859824278032372,0.032692793230094));
#213=CARTESIAN_POINT('',(8.098053319933992,-0.860438878611084,0.015834593136914));
#214=CARTESIAN_POINT('',(8.098053319933992,-0.860438878611084,-0.015834593136914));
#215=CARTESIAN_POINT('',(8.101246391408720,-0.859824278032372,-0.032692793230094));
#216=CARTESIAN_POINT('',(8.114156173130802,-0.857438490804405,-0.063617276995389));
#217=CARTESIAN_POINT('',(8.123871046242735,-0.855679093118397,-0.077685235931843));
#218=CARTESIAN_POINT('',(8.146251209938868,-0.851866808662927,-0.099880253505473));
#219=CARTESIAN_POINT('',(8.160427562988462,-0.849559158782685,-0.109468865107785));
#220=CARTESIAN_POINT('',(8.191448768005044,-0.844952645746008,-0.122092463462900));
#221=CARTESIAN_POINT('',(8.208295519695625,-0.842665103389909,-0.125126910328752));
#222=CARTESIAN_POINT('',(8.224091694445969,-0.840730021213474,-0.124995687039085));
#223=B_SPLINE_CURVE_WITH_KNOTS('',3,(#189,#190,#191,#192,#193,#194,#195,#196,#197,#198,#199,#200,#201,#202,#203,#204,#205,#206,#207,#208,#209,#210,#211,#212,#213,#214,#215,#216,#217,#218,#219,#220,#221,#222),.UNSPECIFIED.,.T.,.U.,(4,2,2,2,2,2,2,2,2,2,2,2,2,2,2,2,4),(0.0,0.119527771575503,0.239055543151006,0.357946334134171,0.476837125117336,0.595727916100500,0.714618707083665,0.834146478659168,0.953674250234671,1.074945035878833,1.196215821522995,1.316875421226281,1.437535020929566,1.558194620632851,1.678854220336137,1.800125005980299,1.921395791624461),.UNSPECIFIED.);
#224=EDGE_CURVE('',#188,#188,#223,.T.);
#225=ORIENTED_EDGE('',*,*,#224,.F.);
#226=EDGE_LOOP('',(#225));
#227=FACE_BOUND('',#226,.T.);
#228=ADVANCED_FACE('',(#186,#227),#145,.F.);
#229=CARTESIAN_POINT('',(10.585357326077496,1.002516911050569,0.0));
#230=DIRECTION('',(1.0,8.951720E-014,0.0));
#231=DIRECTION('',(0.0,1.0,0.0));
#232=AXIS2_PLACEMENT_3D('',#229,#230,#231);
#233=CONICAL_SURFACE('',#232,2.484374999999994,45.000000000000099);
#234=CARTESIAN_POINT('',(10.600982326077721,-1.497483088949425,3.061516E-016));
#235=VERTEX_POINT('',#234);
#236=CARTESIAN_POINT('',(10.600982326077498,1.002516911050570,0.0));
#237=DIRECTION('',(-1.0,0.0,0.0));
#238=DIRECTION('',(0.0,1.0,0.0));
#239=AXIS2_PLACEMENT_3D('',#236,#237,#238);
#240=CIRCLE('',#239,2.499999999999995);
#241=EDGE_CURVE('',#235,#235,#240,.T.);
#242=ORIENTED_EDGE('',*,*,#241,.T.);
#243=EDGE_LOOP('',(#242));
#244=FACE_OUTER_BOUND('',#243,.T.);
#245=CARTESIAN_POINT('',(10.569732326077720,-1.466233088949427,-3.023247E-016));
#246=VERTEX_POINT('',#245);
#247=CARTESIAN_POINT('',(10.569732326077498,1.002516911050567,0.0));
#248=DIRECTION('',(1.0,0.0,0.0));
#249=DIRECTION('',(0.0,1.0,0.0));
#250=AXIS2_PLACEMENT_3D('',#247,#248,#249);
#251=CIRCLE('',#250,2.468749999999994);
#252=EDGE_CURVE('',#246,#246,#251,.T.);
#253=ORIENTED_EDGE('',*,*,#252,.T.);
#254=EDGE_LOOP('',(#253));
#255=FACE_BOUND('',#254,.T.);
#256=ADVANCED_FACE('',(#244,#255),#233,.T.);
#257=CARTESIAN_POINT('',(10.569732326077709,-1.368483088949424,0.0));
#258=DIRECTION('',(-1.0,0.0,0.0));
#259=DIRECTION('',(0.0,0.0,1.0));
#260=AXIS2_PLACEMENT_3D('',#257,#258,#259);
#261=PLANE('',#260);
#262=ORIENTED_EDGE('',*,*,#252,.F.);
#263=EDGE_LOOP('',(#262));
#264=FACE_OUTER_BOUND('',#263,.T.);
#265=CARTESIAN_POINT('',(10.569732326077697,-1.239483088949425,0.0));
#266=VERTEX_POINT('',#265);
#267=CARTESIAN_POINT('',(10.569732326077498,1.002516911050567,0.0));
#268=DIRECTION('',(-1.0,0.0,0.0));
#269=DIRECTION('',(0.0,-1.0,0.0));
#270=AXIS2_PLACEMENT_3D('',#267,#268,#269);
#271=CIRCLE('',#270,2.241999999999993);
#272=EDGE_CURVE('',#266,#266,#271,.T.);
#273=ORIENTED_EDGE('',*,*,#272,.F.);
#274=EDGE_LOOP('',(#273));
#275=FACE_BOUND('',#274,.T.);
#276=ADVANCED_FACE('',(#264,#275),#261,.T.);
#277=CARTESIAN_POINT('',(11.613167241408494,1.002516911050661,0.0));
#278=DIRECTION('',(-1.0,-8.956461E-014,0.0));
#279=DIRECTION('',(0.0,-1.0,0.0));
#280=AXIS2_PLACEMENT_3D('',#277,#278,#279);
#281=CYLINDRICAL_SURFACE('',#280,2.499999999999995);
#282=CARTESIAN_POINT('',(12.656602156739712,-1.497483088949245,0.0));
#283=VERTEX_POINT('',#282);
#284=CARTESIAN_POINT('',(12.656602156739488,1.002516911050754,0.0));
#285=DIRECTION('',(-1.0,0.0,0.0));
#286=DIRECTION('',(0.0,-1.0,0.0));
#287=AXIS2_PLACEMENT_3D('',#284,#285,#286);
#288=CIRCLE('',#287,2.500000000000000);
#289=EDGE_CURVE('',#283,#283,#288,.T.);
#290=ORIENTED_EDGE('',*,*,#289,.T.);
#291=EDGE_LOOP('',(#290));
#292=FACE_OUTER_BOUND('',#291,.T.);
#293=ORIENTED_EDGE('',*,*,#133,.T.);
#294=EDGE_LOOP('',(#293));
#295=FACE_BOUND('',#294,.T.);
#296=ORIENTED_EDGE('',*,*,#241,.F.);
#297=EDGE_LOOP('',(#296));
#298=FACE_BOUND('',#297,.T.);
#299=ADVANCED_FACE('',(#292,#295,#298),#281,.T.);
#300=CARTESIAN_POINT('',(10.155256535003963,1.002516911050530,0.0));
#301=DIRECTION('',(-1.0,-8.956461E-014,0.0));
#302=DIRECTION('',(0.0,-1.0,0.0));
#303=AXIS2_PLACEMENT_3D('',#300,#301,#302);
#304=CYLINDRICAL_SURFACE('',#303,2.241999999999993);
#305=CARTESIAN_POINT('',(9.740780743930634,-1.239483088949502,0.0));
#306=VERTEX_POINT('',#305);
#307=CARTESIAN_POINT('',(9.740780743930435,1.002516911050493,0.0));
#308=DIRECTION('',(-1.0,0.0,0.0));
#309=DIRECTION('',(0.0,-1.0,0.0));
#310=AXIS2_PLACEMENT_3D('',#307,#308,#309);
#311=CIRCLE('',#310,2.241999999999995);
#312=EDGE_CURVE('',#306,#306,#311,.T.);
#313=ORIENTED_EDGE('',*,*,#312,.F.);
#314=EDGE_LOOP('',(#313));
#315=FACE_OUTER_BOUND('',#314,.T.);
#316=ORIENTED_EDGE('',*,*,#272,.T.);
#317=EDGE_LOOP('',(#316));
#318=FACE_BOUND('',#317,.T.);
#319=ADVANCED_FACE('',(#315,#318),#304,.T.);
#320=CARTESIAN_POINT('',(9.717756535003966,1.002516911050491,0.0));
#321=DIRECTION('',(1.0,8.956461E-014,0.0));
#322=DIRECTION('',(0.0,-1.0,0.0));
#323=AXIS2_PLACEMENT_3D('',#320,#321,#322);
#324=CONICAL_SURFACE('',#323,2.218975791073528,44.999999999999361);
#325=CARTESIAN_POINT('',(9.694732326077695,-1.193434671096572,0.0));
#326=VERTEX_POINT('',#325);
#327=CARTESIAN_POINT('',(9.694732326077498,1.002516911050489,0.0));
#328=DIRECTION('',(-1.0,0.0,0.0));
#329=DIRECTION('',(0.0,-1.0,0.0));
#330=AXIS2_PLACEMENT_3D('',#327,#328,#329);
#331=CIRCLE('',#330,2.195951582147061);
#332=EDGE_CURVE('',#326,#326,#331,.T.);
#333=ORIENTED_EDGE('',*,*,#332,.F.);
#334=EDGE_LOOP('',(#333));
#335=FACE_OUTER_BOUND('',#334,.T.);
#336=ORIENTED_EDGE('',*,*,#312,.T.);
#337=EDGE_LOOP('',(#336));
#338=FACE_BOUND('',#337,.T.);
#339=ADVANCED_FACE('',(#335,#338),#324,.T.);
#340=CARTESIAN_POINT('',(9.671708117151034,1.002516911050487,0.0));
#341=DIRECTION('',(-1.0,-8.956461E-014,0.0));
#342=DIRECTION('',(0.0,-1.0,0.0));
#343=AXIS2_PLACEMENT_3D('',#340,#341,#342);
#344=CONICAL_SURFACE('',#343,2.218975791073527,45.000000000000526);
#345=CARTESIAN_POINT('',(9.648683908224768,-1.239483088949509,0.0));
#346=VERTEX_POINT('',#345);
#347=CARTESIAN_POINT('',(9.648683908224566,1.002516911050485,0.0));
#348=DIRECTION('',(-1.0,0.0,0.0));
#349=DIRECTION('',(0.0,-1.0,0.0));
#350=AXIS2_PLACEMENT_3D('',#347,#348,#349);
#351=CIRCLE('',#350,2.241999999999993);
#352=EDGE_CURVE('',#346,#346,#351,.T.);
#353=ORIENTED_EDGE('',*,*,#352,.F.);
#354=EDGE_LOOP('',(#353));
#355=FACE_OUTER_BOUND('',#354,.T.);
#356=ORIENTED_EDGE('',*,*,#332,.T.);
#357=EDGE_LOOP('',(#356));
#358=FACE_BOUND('',#357,.T.);
#359=ADVANCED_FACE('',(#355,#358),#344,.T.);
#360=CARTESIAN_POINT('',(9.579020290205650,1.002516911050479,0.0));
#361=DIRECTION('',(-1.0,-8.956461E-014,0.0));
#362=DIRECTION('',(0.0,-1.0,0.0));
#363=AXIS2_PLACEMENT_3D('',#360,#361,#362);
#364=CYLINDRICAL_SURFACE('',#363,2.241999999999996);
#365=CARTESIAN_POINT('',(9.509356672186929,-1.239483088949528,0.0));
#366=VERTEX_POINT('',#365);
#367=CARTESIAN_POINT('',(9.509356672186732,1.002516911050472,0.0));
#368=DIRECTION('',(-1.0,0.0,0.0));
#369=DIRECTION('',(0.0,-1.0,0.0));
#370=AXIS2_PLACEMENT_3D('',#367,#368,#369);
#371=CIRCLE('',#370,2.242000000000000);
#372=EDGE_CURVE('',#366,#366,#371,.T.);
#373=ORIENTED_EDGE('',*,*,#372,.F.);
#374=EDGE_LOOP('',(#373));
#375=FACE_OUTER_BOUND('',#374,.T.);
#376=ORIENTED_EDGE('',*,*,#352,.T.);
#377=EDGE_LOOP('',(#376));
#378=FACE_BOUND('',#377,.T.);
#379=ADVANCED_FACE('',(#375,#378),#364,.T.);
#380=CARTESIAN_POINT('',(9.491204996060347,1.002516911050471,0.0));
#381=DIRECTION('',(1.0,8.956461E-014,0.0));
#382=DIRECTION('',(0.0,-1.0,0.0));
#383=AXIS2_PLACEMENT_3D('',#380,#381,#382);
#384=CONICAL_SURFACE('',#383,2.223848323873622,44.999999999993818);
#385=CARTESIAN_POINT('',(9.473053319934163,-1.203179736696776,0.0));
#386=VERTEX_POINT('',#385);
#387=CARTESIAN_POINT('',(9.473053319933966,1.002516911050469,0.0));
#388=DIRECTION('',(-1.0,0.0,0.0));
#389=DIRECTION('',(0.0,-1.0,0.0));
#390=AXIS2_PLACEMENT_3D('',#387,#388,#389);
#391=CIRCLE('',#390,2.205696647747245);
#392=EDGE_CURVE('',#386,#386,#391,.T.);
#393=ORIENTED_EDGE('',*,*,#392,.F.);
#394=EDGE_LOOP('',(#393));
#395=FACE_OUTER_BOUND('',#394,.T.);
#396=ORIENTED_EDGE('',*,*,#372,.T.);
#397=EDGE_LOOP('',(#396));
#398=FACE_BOUND('',#397,.T.);
#399=ADVANCED_FACE('',(#395,#398),#384,.T.);
#400=CARTESIAN_POINT('',(9.473053319934163,-1.100331412823230,0.0));
#401=DIRECTION('',(-1.0,0.0,0.0));
#402=DIRECTION('',(0.0,0.0,1.0));
#403=AXIS2_PLACEMENT_3D('',#400,#401,#402);
#404=PLANE('',#403);
#405=ORIENTED_EDGE('',*,*,#392,.T.);
#406=EDGE_LOOP('',(#405));
#407=FACE_OUTER_BOUND('',#406,.T.);
#408=CARTESIAN_POINT('',(9.473053319934163,-0.997483088949684,0.0));
#409=VERTEX_POINT('',#408);
#410=CARTESIAN_POINT('',(9.473053319933984,1.002516911050469,0.0));
#411=DIRECTION('',(-1.0,0.0,0.0));
#412=DIRECTION('',(0.0,-1.0,0.0));
#413=AXIS2_PLACEMENT_3D('',#410,#411,#412);
#414=CIRCLE('',#413,2.000000000000153);
#415=EDGE_CURVE('',#409,#409,#414,.T.);
#416=ORIENTED_EDGE('',*,*,#415,.F.);
#417=EDGE_LOOP('',(#416));
#418=FACE_BOUND('',#417,.T.);
#419=ADVANCED_FACE('',(#407,#418),#404,.T.);
#420=CARTESIAN_POINT('',(8.598053319933984,1.002516911050390,0.0));
#421=DIRECTION('',(-1.0,-8.956461E-014,0.0));
#422=DIRECTION('',(0.0,-1.0,0.0));
#423=AXIS2_PLACEMENT_3D('',#420,#421,#422);
#424=CYLINDRICAL_SURFACE('',#423,2.000000000000077);
#425=CARTESIAN_POINT('',(7.723053319934163,-0.997483088949688,0.0));
#426=VERTEX_POINT('',#425);
#427=CARTESIAN_POINT('',(7.723053319933985,1.002516911050312,0.0));
#428=DIRECTION('',(-1.0,0.0,0.0));
#429=DIRECTION('',(0.0,-1.0,0.0));
#430=AXIS2_PLACEMENT_3D('',#427,#428,#429);
#431=CIRCLE('',#430,2.000000000000000);
#432=EDGE_CURVE('',#426,#426,#431,.T.);
#433=ORIENTED_EDGE('',*,*,#432,.F.);
#434=EDGE_LOOP('',(#433));
#435=FACE_OUTER_BOUND('',#434,.T.);
#436=ORIENTED_EDGE('',*,*,#183,.T.);
#437=EDGE_LOOP('',(#436));
#438=FACE_BOUND('',#437,.T.);
#439=ORIENTED_EDGE('',*,*,#415,.T.);
#440=EDGE_LOOP('',(#439));
#441=FACE_BOUND('',#440,.T.);
#442=ADVANCED_FACE('',(#435,#438,#441),#424,.T.);
#443=CARTESIAN_POINT('',(7.723053319934163,-0.951983088949688,0.0));
#444=DIRECTION('',(-1.0,0.0,0.0));
#445=DIRECTION('',(0.0,0.0,1.0));
#446=AXIS2_PLACEMENT_3D('',#443,#444,#445);
#447=PLANE('',#446);
#448=ORIENTED_EDGE('',*,*,#432,.T.);
#449=EDGE_LOOP('',(#448));
#450=FACE_OUTER_BOUND('',#449,.T.);
#451=CARTESIAN_POINT('',(7.723053319934163,-0.906483088949688,0.0));
#452=VERTEX_POINT('',#451);
#453=CARTESIAN_POINT('',(7.723053319933993,1.002516911050312,0.0));
#454=DIRECTION('',(-1.0,0.0,0.0));
#455=DIRECTION('',(0.0,-1.0,0.0));
#456=AXIS2_PLACEMENT_3D('',#453,#454,#455);
#457=CIRCLE('',#456,1.909000000000000);
#458=EDGE_CURVE('',#452,#452,#457,.T.);
#459=ORIENTED_EDGE('',*,*,#458,.F.);
#460=EDGE_LOOP('',(#459));
#461=FACE_BOUND('',#460,.T.);
#462=ADVANCED_FACE('',(#450,#461),#447,.T.);
#463=CARTESIAN_POINT('',(8.973053319934008,1.002516911050424,0.0));
#464=DIRECTION('',(-1.0,-8.956461E-014,0.0));
#465=DIRECTION('',(0.0,-1.0,0.0));
#466=AXIS2_PLACEMENT_3D('',#463,#464,#465);
#467=CONICAL_SURFACE('',#466,1.755519298871364,7.000000000000181);
#468=CARTESIAN_POINT('',(10.223053319934163,-0.599521686692191,0.0));
#469=VERTEX_POINT('',#468);
#470=CARTESIAN_POINT('',(10.223053319934019,1.002516911050536,0.0));
#471=DIRECTION('',(-1.0,0.0,0.0));
#472=DIRECTION('',(0.0,-1.0,0.0));
#473=AXIS2_PLACEMENT_3D('',#470,#471,#472);
#474=CIRCLE('',#473,1.602038597742728);
#475=EDGE_CURVE('',#469,#469,#474,.T.);
#476=ORIENTED_EDGE('',*,*,#475,.F.);
#477=EDGE_LOOP('',(#476));
#478=FACE_OUTER_BOUND('',#477,.T.);
#479=ORIENTED_EDGE('',*,*,#224,.T.);
#480=EDGE_LOOP('',(#479));
#481=FACE_BOUND('',#480,.T.);
#482=ORIENTED_EDGE('',*,*,#458,.T.);
#483=EDGE_LOOP('',(#482));
#484=FACE_BOUND('',#483,.T.);
#485=ADVANCED_FACE('',(#478,#481,#484),#467,.F.);
#486=CARTESIAN_POINT('',(11.010367450978444,1.002516911050607,0.0));
#487=DIRECTION('',(-1.0,-8.956461E-014,0.0));
#488=DIRECTION('',(0.0,-1.0,0.0));
#489=AXIS2_PLACEMENT_3D('',#486,#487,#488);
#490=CYLINDRICAL_SURFACE('',#489,1.602038597742726);
#491=CARTESIAN_POINT('',(11.797681582023014,-0.599521686692047,0.0));
#492=VERTEX_POINT('',#491);
#493=CARTESIAN_POINT('',(11.797681582022868,1.002516911050677,0.0));
#494=DIRECTION('',(-1.0,0.0,0.0));
#495=DIRECTION('',(0.0,-1.0,0.0));
#496=AXIS2_PLACEMENT_3D('',#493,#494,#495);
#497=CIRCLE('',#496,1.602038597742724);
#498=EDGE_CURVE('',#492,#492,#497,.T.);
#499=ORIENTED_EDGE('',*,*,#498,.F.);
#500=EDGE_LOOP('',(#499));
#501=FACE_OUTER_BOUND('',#500,.T.);
#502=ORIENTED_EDGE('',*,*,#475,.T.);
#503=EDGE_LOOP('',(#502));
#504=FACE_BOUND('',#503,.T.);
#505=ADVANCED_FACE('',(#501,#504),#490,.F.);
#506=CARTESIAN_POINT('',(12.246206954050169,1.002516911050717,0.0));
#507=DIRECTION('',(1.0,8.956461E-014,0.0));
#508=DIRECTION('',(0.0,-1.0,0.0));
#509=AXIS2_PLACEMENT_3D('',#506,#507,#508);
#510=CONICAL_SURFACE('',#509,2.050563969770022,44.999999999999808);
#511=CARTESIAN_POINT('',(12.694732326077695,-1.496572430746562,0.0));
#512=VERTEX_POINT('',#511);
#513=CARTESIAN_POINT('',(12.694732326077471,1.002516911050758,0.0));
#514=DIRECTION('',(-1.0,0.0,0.0));
#515=DIRECTION('',(0.0,-1.0,0.0));
#516=AXIS2_PLACEMENT_3D('',#513,#514,#515);
#517=CIRCLE('',#516,2.499089341797319);
#518=EDGE_CURVE('',#512,#512,#517,.T.);
#519=ORIENTED_EDGE('',*,*,#518,.F.);
#520=EDGE_LOOP('',(#519));
#521=FACE_OUTER_BOUND('',#520,.T.);
#522=ORIENTED_EDGE('',*,*,#498,.T.);
#523=EDGE_LOOP('',(#522));
#524=FACE_BOUND('',#523,.T.);
#525=ADVANCED_FACE('',(#521,#524),#510,.F.);
#526=CARTESIAN_POINT('',(12.674258691834508,1.002516911050756,0.0));
#527=DIRECTION('',(-1.0,-8.956461E-014,0.0));
#528=DIRECTION('',(0.0,0.0,1.0));
#529=AXIS2_PLACEMENT_3D('',#526,#527,#528);
#530=TOROIDAL_SURFACE('',#529,2.440567292099061,0.062000000000000);
#531=ORIENTED_EDGE('',*,*,#289,.F.);
#532=EDGE_LOOP('',(#531));
#533=FACE_OUTER_BOUND('',#532,.T.);
#534=ORIENTED_EDGE('',*,*,#518,.T.);
#535=EDGE_LOOP('',(#534));
#536=FACE_BOUND('',#535,.T.);
#537=ADVANCED_FACE('',(#533,#536),#530,.T.);
#538=CLOSED_SHELL('',(#90,#140,#228,#256,#276,#299,#319,#339,#359,#379,#399,#419,#442,#462,#485,#505,#525,#537));
#539=MANIFOLD_SOLID_BREP('Solid1',#538);
#540=COLOUR_RGB('Default',0.752941012382507,0.752941012382507,0.752941012382507);
#541=FILL_AREA_STYLE_COLOUR('Default',#540);
#542=FILL_AREA_STYLE('Default',(#541));
#543=SURFACE_STYLE_FILL_AREA(#542);
#544=SURFACE_SIDE_STYLE('Default',(#543));
#545=SURFACE_STYLE_USAGE(.BOTH.,#544);
#546=PRESENTATION_STYLE_ASSIGNMENT((#545));
#547=STYLED_ITEM('',(#546),#539);
#548=MECHANICAL_DESIGN_GEOMETRIC_PRESENTATION_REPRESENTATION('',(#547),#42);
#549=ADVANCED_BREP_SHAPE_REPRESENTATION('ABSR',(#539),#42);
#550=SHAPE_REPRESENTATION_RELATIONSHIP('SRR','None',#549,#47);
ENDSEC;
END-ISO-10303-21;
