ISO-10303-21;
HEADER;
FILE_DESCRIPTION( ( 'STEP AP214' ), '1' );
FILE_NAME( '//goodhand-server/Shared Folders/GoodHand Data/Kipp CAD/K1163/K1163.05X20.stp', '2020-12-10T10:35:14', ( '' ), ( '' ), ' ', 'PARTsolutions', ' ' );
FILE_SCHEMA( ( 'AUTOMOTIVE_DESIGN { 1 0 10303 214 1 1 1 1 }' ) );
ENDSEC;
DATA;
#1 = MECHANICAL_DESIGN_GEOMETRIC_PRESENTATION_REPRESENTATION( ' ', ( #10, #11, #12, #13, #14, #15, #16, #17, #18, #19, #20, #21, #22, #23, #24 ), #6 );
#2 = PRODUCT_DEFINITION_CONTEXT( '', #25, 'design' );
#3 = APPLICATION_PROTOCOL_DEFINITION( 'international standard', 'automotive_design', 2001, #25 );
#4 = PRODUCT_CATEGORY_RELATIONSHIP( 'NONE', 'NONE', #26, #27 );
#5 = SHAPE_DEFINITION_REPRESENTATION( #28, #29 );
#6 =  ( GEOMETRIC_REPRESENTATION_CONTEXT( 3 )GLOBAL_UNCERTAINTY_ASSIGNED_CONTEXT( ( #32 ) )GLOBAL_UNIT_ASSIGNED_CONTEXT( ( #34, #35, #36 ) )REPRESENTATION_CONTEXT( 'NONE', 'WORKSPACE' ) );
#10 = STYLED_ITEM( '', ( #38 ), #39 );
#11 = STYLED_ITEM( '', ( #40 ), #41 );
#12 = STYLED_ITEM( '', ( #42 ), #43 );
#13 = STYLED_ITEM( '', ( #44 ), #45 );
#14 = STYLED_ITEM( '', ( #46 ), #47 );
#15 = STYLED_ITEM( '', ( #48 ), #49 );
#16 = STYLED_ITEM( '', ( #50 ), #51 );
#17 = STYLED_ITEM( '', ( #52 ), #53 );
#18 = STYLED_ITEM( '', ( #54 ), #55 );
#19 = STYLED_ITEM( '', ( #56 ), #57 );
#20 = STYLED_ITEM( '', ( #58 ), #59 );
#21 = STYLED_ITEM( '', ( #60 ), #61 );
#22 = STYLED_ITEM( '', ( #62 ), #63 );
#23 = STYLED_ITEM( '', ( #64 ), #65 );
#24 = STYLED_ITEM( '', ( #66 ), #67 );
#25 = APPLICATION_CONTEXT( 'core data for automotive mechanical design processes' );
#26 = PRODUCT_CATEGORY( 'part', 'NONE' );
#27 = PRODUCT_RELATED_PRODUCT_CATEGORY( 'detail', ' ', ( #68 ) );
#28 = PRODUCT_DEFINITION_SHAPE( 'NONE', 'NONE', #69 );
#29 = ADVANCED_BREP_SHAPE_REPRESENTATION( '_K1163.05X20', ( #70, #71 ), #6 );
#32 = UNCERTAINTY_MEASURE_WITH_UNIT( LENGTH_MEASURE( 0.00100000000000000 ), #34, '', '' );
#34 =  ( CONVERSION_BASED_UNIT( 'MILLIMETRE', #74 )LENGTH_UNIT(  )NAMED_UNIT( #77 ) );
#35 =  ( NAMED_UNIT( #79 )PLANE_ANGLE_UNIT(  )SI_UNIT( $, .RADIAN. ) );
#36 =  ( NAMED_UNIT( #79 )SI_UNIT( $, .STERADIAN. )SOLID_ANGLE_UNIT(  ) );
#38 = PRESENTATION_STYLE_ASSIGNMENT( ( #85 ) );
#39 = ADVANCED_FACE( '', ( #86 ), #87, .F. );
#40 = PRESENTATION_STYLE_ASSIGNMENT( ( #88 ) );
#41 = ADVANCED_FACE( '', ( #89, #90 ), #91, .T. );
#42 = PRESENTATION_STYLE_ASSIGNMENT( ( #92 ) );
#43 = ADVANCED_FACE( '', ( #93, #94 ), #95, .F. );
#44 = PRESENTATION_STYLE_ASSIGNMENT( ( #96 ) );
#45 = ADVANCED_FACE( '', ( #97, #98 ), #99, .T. );
#46 = PRESENTATION_STYLE_ASSIGNMENT( ( #100 ) );
#47 = ADVANCED_FACE( '', ( #101, #102 ), #103, .F. );
#48 = PRESENTATION_STYLE_ASSIGNMENT( ( #104 ) );
#49 = ADVANCED_FACE( '', ( #105, #106 ), #107, .T. );
#50 = PRESENTATION_STYLE_ASSIGNMENT( ( #108 ) );
#51 = ADVANCED_FACE( '', ( #109, #110 ), #111, .F. );
#52 = PRESENTATION_STYLE_ASSIGNMENT( ( #112 ) );
#53 = ADVANCED_FACE( '', ( #113, #114 ), #115, .T. );
#54 = PRESENTATION_STYLE_ASSIGNMENT( ( #116 ) );
#55 = ADVANCED_FACE( '', ( #117, #118 ), #119, .F. );
#56 = PRESENTATION_STYLE_ASSIGNMENT( ( #120 ) );
#57 = ADVANCED_FACE( '', ( #121, #122 ), #123, .T. );
#58 = PRESENTATION_STYLE_ASSIGNMENT( ( #124 ) );
#59 = ADVANCED_FACE( '', ( #125, #126 ), #127, .T. );
#60 = PRESENTATION_STYLE_ASSIGNMENT( ( #128 ) );
#61 = ADVANCED_FACE( '', ( #129, #130 ), #131, .T. );
#62 = PRESENTATION_STYLE_ASSIGNMENT( ( #132 ) );
#63 = ADVANCED_FACE( '', ( #133 ), #134, .F. );
#64 = PRESENTATION_STYLE_ASSIGNMENT( ( #135 ) );
#65 = ADVANCED_FACE( '', ( #136, #137 ), #138, .F. );
#66 = PRESENTATION_STYLE_ASSIGNMENT( ( #139 ) );
#67 = ADVANCED_FACE( '', ( #140, #141 ), #142, .T. );
#68 = PRODUCT( '_K1163.05X20', '_K1163.05X20', 'PART-_K1163.05X20-DESC', ( #143 ) );
#69 = PRODUCT_DEFINITION( 'NONE', 'NONE', #144, #2 );
#70 = MANIFOLD_SOLID_BREP( '_K1163.05X20', #145 );
#71 = AXIS2_PLACEMENT_3D( '', #146, #147, #148 );
#74 = LENGTH_MEASURE_WITH_UNIT( LENGTH_MEASURE( 1.00000000000000 ), #149 );
#77 = DIMENSIONAL_EXPONENTS( 1.00000000000000, 0.000000000000000, 0.000000000000000, 0.000000000000000, 0.000000000000000, 0.000000000000000, 0.000000000000000 );
#79 = DIMENSIONAL_EXPONENTS( 0.000000000000000, 0.000000000000000, 0.000000000000000, 0.000000000000000, 0.000000000000000, 0.000000000000000, 0.000000000000000 );
#85 = SURFACE_STYLE_USAGE( .BOTH., #150 );
#86 = FACE_OUTER_BOUND( '', #151, .T. );
#87 = PLANE( '', #152 );
#88 = SURFACE_STYLE_USAGE( .BOTH., #153 );
#89 = FACE_OUTER_BOUND( '', #154, .T. );
#90 = FACE_OUTER_BOUND( '', #155, .T. );
#91 = CYLINDRICAL_SURFACE( '', #156, 2.50000000000000 );
#92 = SURFACE_STYLE_USAGE( .BOTH., #157 );
#93 = FACE_BOUND( '', #158, .T. );
#94 = FACE_OUTER_BOUND( '', #159, .T. );
#95 = PLANE( '', #160 );
#96 = SURFACE_STYLE_USAGE( .BOTH., #161 );
#97 = FACE_BOUND( '', #162, .T. );
#98 = FACE_OUTER_BOUND( '', #163, .T. );
#99 = CONICAL_SURFACE( '', #164, 10.0000000000000, 0.785398163400000 );
#100 = SURFACE_STYLE_USAGE( .BOTH., #165 );
#101 = FACE_OUTER_BOUND( '', #166, .T. );
#102 = FACE_OUTER_BOUND( '', #167, .T. );
#103 = TOROIDAL_SURFACE( '', #168, 2.25000000000000, 0.400000000000000 );
#104 = SURFACE_STYLE_USAGE( .BOTH., #169 );
#105 = FACE_OUTER_BOUND( '', #170, .T. );
#106 = FACE_BOUND( '', #171, .T. );
#107 = CONICAL_SURFACE( '', #172, 2.08237672900000, 1.13838855120000 );
#108 = SURFACE_STYLE_USAGE( .BOTH., #173 );
#109 = FACE_BOUND( '', #174, .T. );
#110 = FACE_OUTER_BOUND( '', #175, .T. );
#111 = PLANE( '', #176 );
#112 = SURFACE_STYLE_USAGE( .BOTH., #177 );
#113 = FACE_OUTER_BOUND( '', #178, .T. );
#114 = FACE_BOUND( '', #179, .T. );
#115 = CONICAL_SURFACE( '', #180, 9.60000000000000, 0.785398163400000 );
#116 = SURFACE_STYLE_USAGE( .BOTH., #181 );
#117 = FACE_OUTER_BOUND( '', #182, .T. );
#118 = FACE_OUTER_BOUND( '', #183, .T. );
#119 = TOROIDAL_SURFACE( '', #184, 3.50000000000000, 1.00000000000000 );
#120 = SURFACE_STYLE_USAGE( .BOTH., #185 );
#121 = FACE_OUTER_BOUND( '', #186, .T. );
#122 = FACE_OUTER_BOUND( '', #187, .T. );
#123 = CYLINDRICAL_SURFACE( '', #188, 10.0000000000000 );
#124 = SURFACE_STYLE_USAGE( .BOTH., #189 );
#125 = FACE_OUTER_BOUND( '', #190, .T. );
#126 = FACE_OUTER_BOUND( '', #191, .T. );
#127 = CYLINDRICAL_SURFACE( '', #192, 1.85000000000000 );
#128 = SURFACE_STYLE_USAGE( .BOTH., #193 );
#129 = FACE_BOUND( '', #194, .T. );
#130 = FACE_OUTER_BOUND( '', #195, .T. );
#131 = CONICAL_SURFACE( '', #196, 2.50000000000000, 0.785398163400000 );
#132 = SURFACE_STYLE_USAGE( .BOTH., #197 );
#133 = FACE_OUTER_BOUND( '', #198, .T. );
#134 = PLANE( '', #199 );
#135 = SURFACE_STYLE_USAGE( .BOTH., #200 );
#136 = FACE_OUTER_BOUND( '', #201, .T. );
#137 = FACE_OUTER_BOUND( '', #202, .T. );
#138 = TOROIDAL_SURFACE( '', #203, 2.25000000000000, 0.400000000000000 );
#139 = SURFACE_STYLE_USAGE( .BOTH., #204 );
#140 = FACE_OUTER_BOUND( '', #205, .T. );
#141 = FACE_OUTER_BOUND( '', #206, .T. );
#142 = CYLINDRICAL_SURFACE( '', #207, 2.50000000000000 );
#143 = PRODUCT_CONTEXT( '', #25, 'mechanical' );
#144 = PRODUCT_DEFINITION_FORMATION_WITH_SPECIFIED_SOURCE( ' ', 'NONE', #68, .NOT_KNOWN. );
#145 = CLOSED_SHELL( '', ( #61, #67, #49, #65, #59, #47, #51, #41, #55, #43, #45, #57, #53, #63, #39 ) );
#146 = CARTESIAN_POINT( '', ( 0.000000000000000, 0.000000000000000, 0.000000000000000 ) );
#147 = DIRECTION( '', ( 0.000000000000000, 0.000000000000000, 1.00000000000000 ) );
#148 = DIRECTION( '', ( 1.00000000000000, 0.000000000000000, 0.000000000000000 ) );
#149 =  ( LENGTH_UNIT(  )NAMED_UNIT( #77 )SI_UNIT( .MILLI., .METRE. ) );
#150 = SURFACE_SIDE_STYLE( '', ( #209 ) );
#151 = EDGE_LOOP( '', ( #210 ) );
#152 = AXIS2_PLACEMENT_3D( '', #211, #212, #213 );
#153 = SURFACE_SIDE_STYLE( '', ( #214 ) );
#154 = EDGE_LOOP( '', ( #215 ) );
#155 = EDGE_LOOP( '', ( #216 ) );
#156 = AXIS2_PLACEMENT_3D( '', #217, #218, #219 );
#157 = SURFACE_SIDE_STYLE( '', ( #220 ) );
#158 = EDGE_LOOP( '', ( #221 ) );
#159 = EDGE_LOOP( '', ( #222 ) );
#160 = AXIS2_PLACEMENT_3D( '', #223, #224, #225 );
#161 = SURFACE_SIDE_STYLE( '', ( #226 ) );
#162 = EDGE_LOOP( '', ( #227 ) );
#163 = EDGE_LOOP( '', ( #228 ) );
#164 = AXIS2_PLACEMENT_3D( '', #229, #230, #231 );
#165 = SURFACE_SIDE_STYLE( '', ( #232 ) );
#166 = EDGE_LOOP( '', ( #233 ) );
#167 = EDGE_LOOP( '', ( #234 ) );
#168 = AXIS2_PLACEMENT_3D( '', #235, #236, #237 );
#169 = SURFACE_SIDE_STYLE( '', ( #238 ) );
#170 = EDGE_LOOP( '', ( #239 ) );
#171 = EDGE_LOOP( '', ( #240 ) );
#172 = AXIS2_PLACEMENT_3D( '', #241, #242, #243 );
#173 = SURFACE_SIDE_STYLE( '', ( #244 ) );
#174 = EDGE_LOOP( '', ( #245 ) );
#175 = EDGE_LOOP( '', ( #246 ) );
#176 = AXIS2_PLACEMENT_3D( '', #247, #248, #249 );
#177 = SURFACE_SIDE_STYLE( '', ( #250 ) );
#178 = EDGE_LOOP( '', ( #251 ) );
#179 = EDGE_LOOP( '', ( #252 ) );
#180 = AXIS2_PLACEMENT_3D( '', #253, #254, #255 );
#181 = SURFACE_SIDE_STYLE( '', ( #256 ) );
#182 = EDGE_LOOP( '', ( #257 ) );
#183 = EDGE_LOOP( '', ( #258 ) );
#184 = AXIS2_PLACEMENT_3D( '', #259, #260, #261 );
#185 = SURFACE_SIDE_STYLE( '', ( #262 ) );
#186 = EDGE_LOOP( '', ( #263 ) );
#187 = EDGE_LOOP( '', ( #264 ) );
#188 = AXIS2_PLACEMENT_3D( '', #265, #266, #267 );
#189 = SURFACE_SIDE_STYLE( '', ( #268 ) );
#190 = EDGE_LOOP( '', ( #269 ) );
#191 = EDGE_LOOP( '', ( #270 ) );
#192 = AXIS2_PLACEMENT_3D( '', #271, #272, #273 );
#193 = SURFACE_SIDE_STYLE( '', ( #274 ) );
#194 = EDGE_LOOP( '', ( #275 ) );
#195 = EDGE_LOOP( '', ( #276 ) );
#196 = AXIS2_PLACEMENT_3D( '', #277, #278, #279 );
#197 = SURFACE_SIDE_STYLE( '', ( #280 ) );
#198 = EDGE_LOOP( '', ( #281 ) );
#199 = AXIS2_PLACEMENT_3D( '', #282, #283, #284 );
#200 = SURFACE_SIDE_STYLE( '', ( #285 ) );
#201 = EDGE_LOOP( '', ( #286 ) );
#202 = EDGE_LOOP( '', ( #287 ) );
#203 = AXIS2_PLACEMENT_3D( '', #288, #289, #290 );
#204 = SURFACE_SIDE_STYLE( '', ( #291 ) );
#205 = EDGE_LOOP( '', ( #292 ) );
#206 = EDGE_LOOP( '', ( #293 ) );
#207 = AXIS2_PLACEMENT_3D( '', #294, #295, #296 );
#209 = SURFACE_STYLE_FILL_AREA( #297 );
#210 = ORIENTED_EDGE( '', *, *, #298, .T. );
#211 = CARTESIAN_POINT( '', ( 20.0000000000000, 2.00950000000000, 0.000000000000000 ) );
#212 = DIRECTION( '', ( -1.00000000000000, 0.000000000000000, 0.000000000000000 ) );
#213 = DIRECTION( '', ( 0.000000000000000, 0.000000000000000, 1.00000000000000 ) );
#214 = SURFACE_STYLE_FILL_AREA( #299 );
#215 = ORIENTED_EDGE( '', *, *, #300, .F. );
#216 = ORIENTED_EDGE( '', *, *, #301, .T. );
#217 = CARTESIAN_POINT( '', ( 20.0000000000000, 0.000000000000000, 0.000000000000000 ) );
#218 = DIRECTION( '', ( -1.00000000000000, -0.000000000000000, 0.000000000000000 ) );
#219 = DIRECTION( '', ( -0.000000000000000, 0.000000000000000, -1.00000000000000 ) );
#220 = SURFACE_STYLE_FILL_AREA( #302 );
#221 = ORIENTED_EDGE( '', *, *, #303, .F. );
#222 = ORIENTED_EDGE( '', *, *, #304, .T. );
#223 = CARTESIAN_POINT( '', ( 0.000000000000000, 9.60000000000000, 0.000000000000000 ) );
#224 = DIRECTION( '', ( -1.00000000000000, 0.000000000000000, 0.000000000000000 ) );
#225 = DIRECTION( '', ( 0.000000000000000, 0.000000000000000, 1.00000000000000 ) );
#226 = SURFACE_STYLE_FILL_AREA( #305 );
#227 = ORIENTED_EDGE( '', *, *, #304, .F. );
#228 = ORIENTED_EDGE( '', *, *, #306, .T. );
#229 = CARTESIAN_POINT( '', ( -0.400000000000001, 0.000000000000000, 0.000000000000000 ) );
#230 = DIRECTION( '', ( -1.00000000000000, 0.000000000000000, -0.000000000000000 ) );
#231 = DIRECTION( '', ( 0.000000000000000, 0.000000000000000, 1.00000000000000 ) );
#232 = SURFACE_STYLE_FILL_AREA( #307 );
#233 = ORIENTED_EDGE( '', *, *, #308, .F. );
#234 = ORIENTED_EDGE( '', *, *, #309, .T. );
#235 = CARTESIAN_POINT( '', ( 3.40000000000000, 0.000000000000000, 0.000000000000000 ) );
#236 = DIRECTION( '', ( 1.00000000000000, 0.000000000000000, -0.000000000000000 ) );
#237 = DIRECTION( '', ( -0.000000000000000, 0.000000000000000, -1.00000000000000 ) );
#238 = SURFACE_STYLE_FILL_AREA( #310 );
#239 = ORIENTED_EDGE( '', *, *, #311, .F. );
#240 = ORIENTED_EDGE( '', *, *, #312, .T. );
#241 = CARTESIAN_POINT( '', ( 4.80725079800706, 0.000000000000000, 0.000000000000000 ) );
#242 = DIRECTION( '', ( 1.00000000000000, -0.000000000000000, -0.000000000000000 ) );
#243 = DIRECTION( '', ( -0.000000000000000, 0.000000000000000, -1.00000000000000 ) );
#244 = SURFACE_STYLE_FILL_AREA( #313 );
#245 = ORIENTED_EDGE( '', *, *, #309, .F. );
#246 = ORIENTED_EDGE( '', *, *, #300, .T. );
#247 = CARTESIAN_POINT( '', ( 3.00000000000000, 2.50000000000000, 0.000000000000000 ) );
#248 = DIRECTION( '', ( -1.00000000000000, 0.000000000000000, 0.000000000000000 ) );
#249 = DIRECTION( '', ( 0.000000000000000, 0.000000000000000, 1.00000000000000 ) );
#250 = SURFACE_STYLE_FILL_AREA( #314 );
#251 = ORIENTED_EDGE( '', *, *, #315, .F. );
#252 = ORIENTED_EDGE( '', *, *, #316, .T. );
#253 = CARTESIAN_POINT( '', ( -4.00000000000000, 0.000000000000000, 0.000000000000000 ) );
#254 = DIRECTION( '', ( 1.00000000000000, -0.000000000000000, -0.000000000000000 ) );
#255 = DIRECTION( '', ( -0.000000000000000, 0.000000000000000, -1.00000000000000 ) );
#256 = SURFACE_STYLE_FILL_AREA( #317 );
#257 = ORIENTED_EDGE( '', *, *, #301, .F. );
#258 = ORIENTED_EDGE( '', *, *, #303, .T. );
#259 = CARTESIAN_POINT( '', ( 1.00000000000000, 0.000000000000000, 0.000000000000000 ) );
#260 = DIRECTION( '', ( 1.00000000000000, 0.000000000000000, -0.000000000000000 ) );
#261 = DIRECTION( '', ( -0.000000000000000, 0.000000000000000, -1.00000000000000 ) );
#262 = SURFACE_STYLE_FILL_AREA( #318 );
#263 = ORIENTED_EDGE( '', *, *, #306, .F. );
#264 = ORIENTED_EDGE( '', *, *, #315, .T. );
#265 = CARTESIAN_POINT( '', ( 20.0000000000000, 0.000000000000000, 0.000000000000000 ) );
#266 = DIRECTION( '', ( -1.00000000000000, -0.000000000000000, 0.000000000000000 ) );
#267 = DIRECTION( '', ( -0.000000000000000, 0.000000000000000, -1.00000000000000 ) );
#268 = SURFACE_STYLE_FILL_AREA( #319 );
#269 = ORIENTED_EDGE( '', *, *, #320, .F. );
#270 = ORIENTED_EDGE( '', *, *, #308, .T. );
#271 = CARTESIAN_POINT( '', ( 20.0000000000000, 0.000000000000000, 0.000000000000000 ) );
#272 = DIRECTION( '', ( -1.00000000000000, -0.000000000000000, 0.000000000000000 ) );
#273 = DIRECTION( '', ( -0.000000000000000, 0.000000000000000, -1.00000000000000 ) );
#274 = SURFACE_STYLE_FILL_AREA( #321 );
#275 = ORIENTED_EDGE( '', *, *, #298, .F. );
#276 = ORIENTED_EDGE( '', *, *, #322, .T. );
#277 = CARTESIAN_POINT( '', ( 19.5095000000000, 0.000000000000000, 0.000000000000000 ) );
#278 = DIRECTION( '', ( -1.00000000000000, 0.000000000000000, -0.000000000000000 ) );
#279 = DIRECTION( '', ( 0.000000000000000, 0.000000000000000, 1.00000000000000 ) );
#280 = SURFACE_STYLE_FILL_AREA( #323 );
#281 = ORIENTED_EDGE( '', *, *, #316, .F. );
#282 = CARTESIAN_POINT( '', ( -4.00000000000000, 0.000000000000000, 0.000000000000000 ) );
#283 = DIRECTION( '', ( 1.00000000000000, 0.000000000000000, -0.000000000000000 ) );
#284 = DIRECTION( '', ( -0.000000000000000, 0.000000000000000, -1.00000000000000 ) );
#285 = SURFACE_STYLE_FILL_AREA( #324 );
#286 = ORIENTED_EDGE( '', *, *, #312, .F. );
#287 = ORIENTED_EDGE( '', *, *, #320, .T. );
#288 = CARTESIAN_POINT( '', ( 4.44406704420688, 0.000000000000000, 0.000000000000000 ) );
#289 = DIRECTION( '', ( 1.00000000000000, 0.000000000000000, -0.000000000000000 ) );
#290 = DIRECTION( '', ( -0.000000000000000, 0.000000000000000, -1.00000000000000 ) );
#291 = SURFACE_STYLE_FILL_AREA( #325 );
#292 = ORIENTED_EDGE( '', *, *, #322, .F. );
#293 = ORIENTED_EDGE( '', *, *, #311, .T. );
#294 = CARTESIAN_POINT( '', ( 20.0000000000000, 0.000000000000000, 0.000000000000000 ) );
#295 = DIRECTION( '', ( -1.00000000000000, -0.000000000000000, 0.000000000000000 ) );
#296 = DIRECTION( '', ( -0.000000000000000, 0.000000000000000, -1.00000000000000 ) );
#297 = FILL_AREA_STYLE( '', ( #326 ) );
#298 = EDGE_CURVE( '', #327, #327, #328, .T. );
#299 = FILL_AREA_STYLE( '', ( #329 ) );
#300 = EDGE_CURVE( '', #330, #330, #331, .T. );
#301 = EDGE_CURVE( '', #332, #332, #333, .T. );
#302 = FILL_AREA_STYLE( '', ( #334 ) );
#303 = EDGE_CURVE( '', #335, #335, #336, .T. );
#304 = EDGE_CURVE( '', #337, #337, #338, .T. );
#305 = FILL_AREA_STYLE( '', ( #339 ) );
#306 = EDGE_CURVE( '', #340, #340, #341, .T. );
#307 = FILL_AREA_STYLE( '', ( #342 ) );
#308 = EDGE_CURVE( '', #343, #343, #344, .T. );
#309 = EDGE_CURVE( '', #345, #345, #346, .T. );
#310 = FILL_AREA_STYLE( '', ( #347 ) );
#311 = EDGE_CURVE( '', #348, #348, #349, .T. );
#312 = EDGE_CURVE( '', #350, #350, #351, .T. );
#313 = FILL_AREA_STYLE( '', ( #352 ) );
#314 = FILL_AREA_STYLE( '', ( #353 ) );
#315 = EDGE_CURVE( '', #354, #354, #355, .T. );
#316 = EDGE_CURVE( '', #356, #356, #357, .T. );
#317 = FILL_AREA_STYLE( '', ( #358 ) );
#318 = FILL_AREA_STYLE( '', ( #359 ) );
#319 = FILL_AREA_STYLE( '', ( #360 ) );
#320 = EDGE_CURVE( '', #361, #361, #362, .T. );
#321 = FILL_AREA_STYLE( '', ( #363 ) );
#322 = EDGE_CURVE( '', #364, #364, #365, .T. );
#323 = FILL_AREA_STYLE( '', ( #366 ) );
#324 = FILL_AREA_STYLE( '', ( #367 ) );
#325 = FILL_AREA_STYLE( '', ( #368 ) );
#326 = FILL_AREA_STYLE_COLOUR( '', #369 );
#327 = VERTEX_POINT( '', #370 );
#328 = CIRCLE( '', #371, 2.00950000000000 );
#329 = FILL_AREA_STYLE_COLOUR( '', #372 );
#330 = VERTEX_POINT( '', #373 );
#331 = CIRCLE( '', #374, 2.50000000000000 );
#332 = VERTEX_POINT( '', #375 );
#333 = CIRCLE( '', #376, 2.50000000000000 );
#334 = FILL_AREA_STYLE_COLOUR( '', #377 );
#335 = VERTEX_POINT( '', #378 );
#336 = CIRCLE( '', #379, 3.50000000000000 );
#337 = VERTEX_POINT( '', #380 );
#338 = CIRCLE( '', #381, 9.60000000000000 );
#339 = FILL_AREA_STYLE_COLOUR( '', #382 );
#340 = VERTEX_POINT( '', #383 );
#341 = CIRCLE( '', #384, 10.0000000000000 );
#342 = FILL_AREA_STYLE_COLOUR( '', #385 );
#343 = VERTEX_POINT( '', #386 );
#344 = CIRCLE( '', #387, 1.85000000000000 );
#345 = VERTEX_POINT( '', #388 );
#346 = CIRCLE( '', #389, 2.25000000000000 );
#347 = FILL_AREA_STYLE_COLOUR( '', #390 );
#348 = VERTEX_POINT( '', #391 );
#349 = CIRCLE( '', #392, 2.50000000000000 );
#350 = VERTEX_POINT( '', #393 );
#351 = CIRCLE( '', #394, 2.08237672900000 );
#352 = FILL_AREA_STYLE_COLOUR( '', #395 );
#353 = FILL_AREA_STYLE_COLOUR( '', #396 );
#354 = VERTEX_POINT( '', #397 );
#355 = CIRCLE( '', #398, 10.0000000000000 );
#356 = VERTEX_POINT( '', #399 );
#357 = CIRCLE( '', #400, 9.60000000000000 );
#358 = FILL_AREA_STYLE_COLOUR( '', #401 );
#359 = FILL_AREA_STYLE_COLOUR( '', #402 );
#360 = FILL_AREA_STYLE_COLOUR( '', #403 );
#361 = VERTEX_POINT( '', #404 );
#362 = CIRCLE( '', #405, 1.85000000000000 );
#363 = FILL_AREA_STYLE_COLOUR( '', #406 );
#364 = VERTEX_POINT( '', #407 );
#365 = CIRCLE( '', #408, 2.50000000000000 );
#366 = FILL_AREA_STYLE_COLOUR( '', #409 );
#367 = FILL_AREA_STYLE_COLOUR( '', #410 );
#368 = FILL_AREA_STYLE_COLOUR( '', #411 );
#369 = COLOUR_RGB( '', 0.689999997600000, 0.689999997600000, 0.689999997600000 );
#370 = CARTESIAN_POINT( '', ( 20.0000000000000, 0.000000000000000, -2.00950000000000 ) );
#371 = AXIS2_PLACEMENT_3D( '', #412, #413, #414 );
#372 = COLOUR_RGB( '', 0.689999997600000, 0.689999997600000, 0.689999997600000 );
#373 = CARTESIAN_POINT( '', ( 3.00000000000000, 0.000000000000000, -2.50000000000000 ) );
#374 = AXIS2_PLACEMENT_3D( '', #415, #416, #417 );
#375 = CARTESIAN_POINT( '', ( 1.00000000000000, 0.000000000000000, -2.50000000000000 ) );
#376 = AXIS2_PLACEMENT_3D( '', #418, #419, #420 );
#377 = COLOUR_RGB( '', 0.689999997600000, 0.689999997600000, 0.689999997600000 );
#378 = CARTESIAN_POINT( '', ( 0.000000000000000, 0.000000000000000, -3.50000000000000 ) );
#379 = AXIS2_PLACEMENT_3D( '', #421, #422, #423 );
#380 = CARTESIAN_POINT( '', ( 0.000000000000000, 0.000000000000000, -9.60000000000000 ) );
#381 = AXIS2_PLACEMENT_3D( '', #424, #425, #426 );
#382 = COLOUR_RGB( '', 0.689999997600000, 0.689999997600000, 0.689999997600000 );
#383 = CARTESIAN_POINT( '', ( -0.400000000000001, 0.000000000000000, -10.0000000000000 ) );
#384 = AXIS2_PLACEMENT_3D( '', #427, #428, #429 );
#385 = COLOUR_RGB( '', 0.689999997600000, 0.689999997600000, 0.689999997600000 );
#386 = CARTESIAN_POINT( '', ( 3.40000000000000, 0.000000000000000, -1.85000000000000 ) );
#387 = AXIS2_PLACEMENT_3D( '', #430, #431, #432 );
#388 = CARTESIAN_POINT( '', ( 3.00000000000000, 0.000000000000000, -2.25000000000000 ) );
#389 = AXIS2_PLACEMENT_3D( '', #433, #434, #435 );
#390 = COLOUR_RGB( '', 0.689999997600000, 0.689999997600000, 0.689999997600000 );
#391 = CARTESIAN_POINT( '', ( 5.00000000000000, 0.000000000000000, -2.50000000000000 ) );
#392 = AXIS2_PLACEMENT_3D( '', #436, #437, #438 );
#393 = CARTESIAN_POINT( '', ( 4.80725079800706, 0.000000000000000, -2.08237672901530 ) );
#394 = AXIS2_PLACEMENT_3D( '', #439, #440, #441 );
#395 = COLOUR_RGB( '', 0.689999997600000, 0.689999997600000, 0.689999997600000 );
#396 = COLOUR_RGB( '', 0.689999997600000, 0.689999997600000, 0.689999997600000 );
#397 = CARTESIAN_POINT( '', ( -3.60000000000000, 0.000000000000000, -10.0000000000000 ) );
#398 = AXIS2_PLACEMENT_3D( '', #442, #443, #444 );
#399 = CARTESIAN_POINT( '', ( -4.00000000000000, 0.000000000000000, -9.60000000000000 ) );
#400 = AXIS2_PLACEMENT_3D( '', #445, #446, #447 );
#401 = COLOUR_RGB( '', 0.689999997600000, 0.689999997600000, 0.689999997600000 );
#402 = COLOUR_RGB( '', 0.689999997600000, 0.689999997600000, 0.689999997600000 );
#403 = COLOUR_RGB( '', 0.689999997600000, 0.689999997600000, 0.689999997600000 );
#404 = CARTESIAN_POINT( '', ( 4.44406704420688, 0.000000000000000, -1.85000000000000 ) );
#405 = AXIS2_PLACEMENT_3D( '', #448, #449, #450 );
#406 = COLOUR_RGB( '', 0.689999997600000, 0.689999997600000, 0.689999997600000 );
#407 = CARTESIAN_POINT( '', ( 19.5095000000000, 0.000000000000000, -2.50000000000000 ) );
#408 = AXIS2_PLACEMENT_3D( '', #451, #452, #453 );
#409 = COLOUR_RGB( '', 0.689999997600000, 0.689999997600000, 0.689999997600000 );
#410 = COLOUR_RGB( '', 0.689999997600000, 0.689999997600000, 0.689999997600000 );
#411 = COLOUR_RGB( '', 0.689999997600000, 0.689999997600000, 0.689999997600000 );
#412 = CARTESIAN_POINT( '', ( 20.0000000000000, 0.000000000000000, 0.000000000000000 ) );
#413 = DIRECTION( '', ( 1.00000000000000, 0.000000000000000, -0.000000000000000 ) );
#414 = DIRECTION( '', ( -0.000000000000000, 0.000000000000000, -1.00000000000000 ) );
#415 = CARTESIAN_POINT( '', ( 3.00000000000000, 0.000000000000000, 0.000000000000000 ) );
#416 = DIRECTION( '', ( 1.00000000000000, 0.000000000000000, -0.000000000000000 ) );
#417 = DIRECTION( '', ( -0.000000000000000, 0.000000000000000, -1.00000000000000 ) );
#418 = CARTESIAN_POINT( '', ( 1.00000000000000, 0.000000000000000, 0.000000000000000 ) );
#419 = DIRECTION( '', ( 1.00000000000000, 0.000000000000000, -0.000000000000000 ) );
#420 = DIRECTION( '', ( -0.000000000000000, 0.000000000000000, -1.00000000000000 ) );
#421 = CARTESIAN_POINT( '', ( 0.000000000000000, 0.000000000000000, 0.000000000000000 ) );
#422 = DIRECTION( '', ( 1.00000000000000, 0.000000000000000, -0.000000000000000 ) );
#423 = DIRECTION( '', ( -0.000000000000000, 0.000000000000000, -1.00000000000000 ) );
#424 = CARTESIAN_POINT( '', ( 0.000000000000000, 0.000000000000000, 0.000000000000000 ) );
#425 = DIRECTION( '', ( 1.00000000000000, 0.000000000000000, -0.000000000000000 ) );
#426 = DIRECTION( '', ( -0.000000000000000, 0.000000000000000, -1.00000000000000 ) );
#427 = CARTESIAN_POINT( '', ( -0.400000000000001, 0.000000000000000, 0.000000000000000 ) );
#428 = DIRECTION( '', ( 1.00000000000000, 0.000000000000000, -0.000000000000000 ) );
#429 = DIRECTION( '', ( -0.000000000000000, 0.000000000000000, -1.00000000000000 ) );
#430 = CARTESIAN_POINT( '', ( 3.40000000000000, 0.000000000000000, 0.000000000000000 ) );
#431 = DIRECTION( '', ( 1.00000000000000, 0.000000000000000, -0.000000000000000 ) );
#432 = DIRECTION( '', ( -0.000000000000000, 0.000000000000000, -1.00000000000000 ) );
#433 = CARTESIAN_POINT( '', ( 3.00000000000000, 0.000000000000000, 0.000000000000000 ) );
#434 = DIRECTION( '', ( 1.00000000000000, 0.000000000000000, -0.000000000000000 ) );
#435 = DIRECTION( '', ( -0.000000000000000, 0.000000000000000, -1.00000000000000 ) );
#436 = CARTESIAN_POINT( '', ( 5.00000000000000, 0.000000000000000, 0.000000000000000 ) );
#437 = DIRECTION( '', ( 1.00000000000000, 0.000000000000000, -0.000000000000000 ) );
#438 = DIRECTION( '', ( -0.000000000000000, 0.000000000000000, -1.00000000000000 ) );
#439 = CARTESIAN_POINT( '', ( 4.80725079800706, 0.000000000000000, 0.000000000000000 ) );
#440 = DIRECTION( '', ( 1.00000000000000, 0.000000000000000, -0.000000000000000 ) );
#441 = DIRECTION( '', ( -0.000000000000000, 0.000000000000000, -1.00000000000000 ) );
#442 = CARTESIAN_POINT( '', ( -3.60000000000000, 0.000000000000000, 0.000000000000000 ) );
#443 = DIRECTION( '', ( 1.00000000000000, 0.000000000000000, -0.000000000000000 ) );
#444 = DIRECTION( '', ( -0.000000000000000, 0.000000000000000, -1.00000000000000 ) );
#445 = CARTESIAN_POINT( '', ( -4.00000000000000, 0.000000000000000, 0.000000000000000 ) );
#446 = DIRECTION( '', ( 1.00000000000000, 0.000000000000000, -0.000000000000000 ) );
#447 = DIRECTION( '', ( -0.000000000000000, 0.000000000000000, -1.00000000000000 ) );
#448 = CARTESIAN_POINT( '', ( 4.44406704420688, 0.000000000000000, 0.000000000000000 ) );
#449 = DIRECTION( '', ( 1.00000000000000, 0.000000000000000, -0.000000000000000 ) );
#450 = DIRECTION( '', ( -0.000000000000000, 0.000000000000000, -1.00000000000000 ) );
#451 = CARTESIAN_POINT( '', ( 19.5095000000000, 0.000000000000000, 0.000000000000000 ) );
#452 = DIRECTION( '', ( 1.00000000000000, 0.000000000000000, -0.000000000000000 ) );
#453 = DIRECTION( '', ( -0.000000000000000, 0.000000000000000, -1.00000000000000 ) );
ENDSEC;
END-ISO-10303-21;
