ISO-10303-21;
HEADER;
FILE_DESCRIPTION( ( 'STEP AP214' ), '1' );
FILE_NAME( '//goodhand-server/Shared Folders/GoodHand Data/Kipp CAD/K0757/K0757.110010X0500.stp', '2020-12-10T08:49:52', ( '' ), ( '' ), ' ', 'PARTsolutions', ' ' );
FILE_SCHEMA( ( 'AUTOMOTIVE_DESIGN { 1 0 10303 214 1 1 1 1 }' ) );
ENDSEC;
DATA;
#1 = MECHANICAL_DESIGN_GEOMETRIC_PRESENTATION_REPRESENTATION( ' ', ( #10, #11, #12, #13, #14, #15, #16, #17, #18 ), #6 );
#2 = PRODUCT_DEFINITION_CONTEXT( '', #19, 'design' );
#3 = APPLICATION_PROTOCOL_DEFINITION( 'international standard', 'automotive_design', 2001, #19 );
#4 = PRODUCT_CATEGORY_RELATIONSHIP( 'NONE', 'NONE', #20, #21 );
#5 = SHAPE_DEFINITION_REPRESENTATION( #22, #23 );
#6 =  ( GEOMETRIC_REPRESENTATION_CONTEXT( 3 )GLOBAL_UNCERTAINTY_ASSIGNED_CONTEXT( ( #26 ) )GLOBAL_UNIT_ASSIGNED_CONTEXT( ( #28, #29, #30 ) )REPRESENTATION_CONTEXT( 'NONE', 'WORKSPACE' ) );
#10 = STYLED_ITEM( '', ( #32 ), #33 );
#11 = STYLED_ITEM( '', ( #34 ), #35 );
#12 = STYLED_ITEM( '', ( #36 ), #37 );
#13 = STYLED_ITEM( '', ( #38 ), #39 );
#14 = STYLED_ITEM( '', ( #40 ), #41 );
#15 = STYLED_ITEM( '', ( #42 ), #43 );
#16 = STYLED_ITEM( '', ( #44 ), #45 );
#17 = STYLED_ITEM( '', ( #46 ), #47 );
#18 = STYLED_ITEM( '', ( #48 ), #49 );
#19 = APPLICATION_CONTEXT( 'core data for automotive mechanical design processes' );
#20 = PRODUCT_CATEGORY( 'part', 'NONE' );
#21 = PRODUCT_RELATED_PRODUCT_CATEGORY( 'detail', ' ', ( #50 ) );
#22 = PRODUCT_DEFINITION_SHAPE( 'NONE', 'NONE', #51 );
#23 = ADVANCED_BREP_SHAPE_REPRESENTATION( '_K0757.110010X0500', ( #52, #53 ), #6 );
#26 = UNCERTAINTY_MEASURE_WITH_UNIT( LENGTH_MEASURE( 0.00100000000000000 ), #28, '', '' );
#28 =  ( CONVERSION_BASED_UNIT( 'MILLIMETRE', #56 )LENGTH_UNIT(  )NAMED_UNIT( #59 ) );
#29 =  ( NAMED_UNIT( #61 )PLANE_ANGLE_UNIT(  )SI_UNIT( $, .RADIAN. ) );
#30 =  ( NAMED_UNIT( #61 )SI_UNIT( $, .STERADIAN. )SOLID_ANGLE_UNIT(  ) );
#32 = PRESENTATION_STYLE_ASSIGNMENT( ( #67 ) );
#33 = ADVANCED_FACE( '', ( #68, #69, #70, #71 ), #72, .T. );
#34 = PRESENTATION_STYLE_ASSIGNMENT( ( #73 ) );
#35 = ADVANCED_FACE( '', ( #74 ), #75, .F. );
#36 = PRESENTATION_STYLE_ASSIGNMENT( ( #76 ) );
#37 = ADVANCED_FACE( '', ( #77, #78 ), #79, .F. );
#38 = PRESENTATION_STYLE_ASSIGNMENT( ( #80 ) );
#39 = ADVANCED_FACE( '', ( #81, #82 ), #83, .F. );
#40 = PRESENTATION_STYLE_ASSIGNMENT( ( #84 ) );
#41 = ADVANCED_FACE( '', ( #85 ), #86, .F. );
#42 = PRESENTATION_STYLE_ASSIGNMENT( ( #87 ) );
#43 = ADVANCED_FACE( '', ( #88 ), #89, .F. );
#44 = PRESENTATION_STYLE_ASSIGNMENT( ( #90 ) );
#45 = ADVANCED_FACE( '', ( #91, #92, #93, #94 ), #95, .F. );
#46 = PRESENTATION_STYLE_ASSIGNMENT( ( #96 ) );
#47 = ADVANCED_FACE( '', ( #97 ), #98, .F. );
#48 = PRESENTATION_STYLE_ASSIGNMENT( ( #99 ) );
#49 = ADVANCED_FACE( '', ( #100, #101 ), #102, .F. );
#50 = PRODUCT( '_K0757.110010X0500', '_K0757.110010X0500', 'PART-_K0757.110010X0500-DESC', ( #103 ) );
#51 = PRODUCT_DEFINITION( 'NONE', 'NONE', #104, #2 );
#52 = MANIFOLD_SOLID_BREP( '_K0757.110010X0500', #105 );
#53 = AXIS2_PLACEMENT_3D( '', #106, #107, #108 );
#56 = LENGTH_MEASURE_WITH_UNIT( LENGTH_MEASURE( 1.00000000000000 ), #109 );
#59 = DIMENSIONAL_EXPONENTS( 1.00000000000000, 0.000000000000000, 0.000000000000000, 0.000000000000000, 0.000000000000000, 0.000000000000000, 0.000000000000000 );
#61 = DIMENSIONAL_EXPONENTS( 0.000000000000000, 0.000000000000000, 0.000000000000000, 0.000000000000000, 0.000000000000000, 0.000000000000000, 0.000000000000000 );
#67 = SURFACE_STYLE_USAGE( .BOTH., #110 );
#68 = FACE_BOUND( '', #111, .T. );
#69 = FACE_BOUND( '', #112, .T. );
#70 = FACE_BOUND( '', #113, .T. );
#71 = FACE_OUTER_BOUND( '', #114, .T. );
#72 = PLANE( '', #115 );
#73 = SURFACE_STYLE_USAGE( .BOTH., #116 );
#74 = FACE_OUTER_BOUND( '', #117, .T. );
#75 = PLANE( '', #118 );
#76 = SURFACE_STYLE_USAGE( .BOTH., #119 );
#77 = FACE_BOUND( '', #120, .T. );
#78 = FACE_OUTER_BOUND( '', #121, .T. );
#79 = CONICAL_SURFACE( '', #122, 4.05000000000000, 0.785398163400000 );
#80 = SURFACE_STYLE_USAGE( .BOTH., #123 );
#81 = FACE_BOUND( '', #124, .T. );
#82 = FACE_OUTER_BOUND( '', #125, .T. );
#83 = CONICAL_SURFACE( '', #126, 4.05000000000000, 0.785398163400000 );
#84 = SURFACE_STYLE_USAGE( .BOTH., #127 );
#85 = FACE_OUTER_BOUND( '', #128, .T. );
#86 = PLANE( '', #129 );
#87 = SURFACE_STYLE_USAGE( .BOTH., #130 );
#88 = FACE_OUTER_BOUND( '', #131, .T. );
#89 = PLANE( '', #132 );
#90 = SURFACE_STYLE_USAGE( .BOTH., #133 );
#91 = FACE_BOUND( '', #134, .T. );
#92 = FACE_BOUND( '', #135, .T. );
#93 = FACE_BOUND( '', #136, .T. );
#94 = FACE_OUTER_BOUND( '', #137, .T. );
#95 = PLANE( '', #138 );
#96 = SURFACE_STYLE_USAGE( .BOTH., #139 );
#97 = FACE_OUTER_BOUND( '', #140, .T. );
#98 = PLANE( '', #141 );
#99 = SURFACE_STYLE_USAGE( .BOTH., #142 );
#100 = FACE_BOUND( '', #143, .T. );
#101 = FACE_OUTER_BOUND( '', #144, .T. );
#102 = CONICAL_SURFACE( '', #145, 4.05000000000000, 0.785398163400000 );
#103 = PRODUCT_CONTEXT( '', #19, 'mechanical' );
#104 = PRODUCT_DEFINITION_FORMATION_WITH_SPECIFIED_SOURCE( ' ', 'NONE', #50, .NOT_KNOWN. );
#105 = CLOSED_SHELL( '', ( #45, #49, #33, #41, #35, #43, #47, #37, #39 ) );
#106 = CARTESIAN_POINT( '', ( 0.000000000000000, 0.000000000000000, 0.000000000000000 ) );
#107 = DIRECTION( '', ( 0.000000000000000, 0.000000000000000, 1.00000000000000 ) );
#108 = DIRECTION( '', ( 1.00000000000000, 0.000000000000000, 0.000000000000000 ) );
#109 =  ( LENGTH_UNIT(  )NAMED_UNIT( #59 )SI_UNIT( .MILLI., .METRE. ) );
#110 = SURFACE_SIDE_STYLE( '', ( #147 ) );
#111 = EDGE_LOOP( '', ( #148 ) );
#112 = EDGE_LOOP( '', ( #149 ) );
#113 = EDGE_LOOP( '', ( #150 ) );
#114 = EDGE_LOOP( '', ( #151, #152, #153, #154 ) );
#115 = AXIS2_PLACEMENT_3D( '', #155, #156, #157 );
#116 = SURFACE_SIDE_STYLE( '', ( #158 ) );
#117 = EDGE_LOOP( '', ( #159, #160, #161, #162 ) );
#118 = AXIS2_PLACEMENT_3D( '', #163, #164, #165 );
#119 = SURFACE_SIDE_STYLE( '', ( #166 ) );
#120 = EDGE_LOOP( '', ( #167 ) );
#121 = EDGE_LOOP( '', ( #168 ) );
#122 = AXIS2_PLACEMENT_3D( '', #169, #170, #171 );
#123 = SURFACE_SIDE_STYLE( '', ( #172 ) );
#124 = EDGE_LOOP( '', ( #173 ) );
#125 = EDGE_LOOP( '', ( #174 ) );
#126 = AXIS2_PLACEMENT_3D( '', #175, #176, #177 );
#127 = SURFACE_SIDE_STYLE( '', ( #178 ) );
#128 = EDGE_LOOP( '', ( #179, #180, #181, #182 ) );
#129 = AXIS2_PLACEMENT_3D( '', #183, #184, #185 );
#130 = SURFACE_SIDE_STYLE( '', ( #186 ) );
#131 = EDGE_LOOP( '', ( #187, #188, #189, #190 ) );
#132 = AXIS2_PLACEMENT_3D( '', #191, #192, #193 );
#133 = SURFACE_SIDE_STYLE( '', ( #194 ) );
#134 = EDGE_LOOP( '', ( #195 ) );
#135 = EDGE_LOOP( '', ( #196 ) );
#136 = EDGE_LOOP( '', ( #197 ) );
#137 = EDGE_LOOP( '', ( #198, #199, #200, #201 ) );
#138 = AXIS2_PLACEMENT_3D( '', #202, #203, #204 );
#139 = SURFACE_SIDE_STYLE( '', ( #205 ) );
#140 = EDGE_LOOP( '', ( #206, #207, #208, #209 ) );
#141 = AXIS2_PLACEMENT_3D( '', #210, #211, #212 );
#142 = SURFACE_SIDE_STYLE( '', ( #213 ) );
#143 = EDGE_LOOP( '', ( #214 ) );
#144 = EDGE_LOOP( '', ( #215 ) );
#145 = AXIS2_PLACEMENT_3D( '', #216, #217, #218 );
#147 = SURFACE_STYLE_FILL_AREA( #219 );
#148 = ORIENTED_EDGE( '', *, *, #220, .T. );
#149 = ORIENTED_EDGE( '', *, *, #221, .T. );
#150 = ORIENTED_EDGE( '', *, *, #222, .T. );
#151 = ORIENTED_EDGE( '', *, *, #223, .T. );
#152 = ORIENTED_EDGE( '', *, *, #224, .T. );
#153 = ORIENTED_EDGE( '', *, *, #225, .T. );
#154 = ORIENTED_EDGE( '', *, *, #226, .T. );
#155 = CARTESIAN_POINT( '', ( 0.000000000000000, 0.000000000000000, 2.00000000000000 ) );
#156 = DIRECTION( '', ( -0.000000000000000, 0.000000000000000, 1.00000000000000 ) );
#157 = DIRECTION( '', ( 1.00000000000000, 0.000000000000000, 0.000000000000000 ) );
#158 = SURFACE_STYLE_FILL_AREA( #227 );
#159 = ORIENTED_EDGE( '', *, *, #228, .T. );
#160 = ORIENTED_EDGE( '', *, *, #229, .F. );
#161 = ORIENTED_EDGE( '', *, *, #223, .F. );
#162 = ORIENTED_EDGE( '', *, *, #230, .T. );
#163 = CARTESIAN_POINT( '', ( -15.0000000000000, 510.000000000000, 2.00000000000000 ) );
#164 = DIRECTION( '', ( 1.00000000000000, -6.12255344462402E-17, 0.000000000000000 ) );
#165 = DIRECTION( '', ( 6.12255344462403E-17, 1.00000000000000, 0.000000000000000 ) );
#166 = SURFACE_STYLE_FILL_AREA( #231 );
#167 = ORIENTED_EDGE( '', *, *, #232, .T. );
#168 = ORIENTED_EDGE( '', *, *, #221, .F. );
#169 = CARTESIAN_POINT( '', ( -7.49999999999997, 490.000000000000, 2.00000000000000 ) );
#170 = DIRECTION( '', ( 0.000000000000000, -0.000000000000000, 1.00000000000000 ) );
#171 = DIRECTION( '', ( 1.00000000000000, 0.000000000000000, -0.000000000000000 ) );
#172 = SURFACE_STYLE_FILL_AREA( #233 );
#173 = ORIENTED_EDGE( '', *, *, #234, .T. );
#174 = ORIENTED_EDGE( '', *, *, #220, .F. );
#175 = CARTESIAN_POINT( '', ( -7.49999999999998, 260.000000000000, 2.00000000000000 ) );
#176 = DIRECTION( '', ( 0.000000000000000, -0.000000000000000, 1.00000000000000 ) );
#177 = DIRECTION( '', ( 1.00000000000000, 0.000000000000000, -0.000000000000000 ) );
#178 = SURFACE_STYLE_FILL_AREA( #235 );
#179 = ORIENTED_EDGE( '', *, *, #236, .T. );
#180 = ORIENTED_EDGE( '', *, *, #230, .F. );
#181 = ORIENTED_EDGE( '', *, *, #226, .F. );
#182 = ORIENTED_EDGE( '', *, *, #237, .T. );
#183 = CARTESIAN_POINT( '', ( 3.12284933782575E-14, 510.000000000000, 2.00000000000000 ) );
#184 = DIRECTION( '', ( 0.000000000000000, -1.00000000000000, 0.000000000000000 ) );
#185 = DIRECTION( '', ( 0.000000000000000, 0.000000000000000, -1.00000000000000 ) );
#186 = SURFACE_STYLE_FILL_AREA( #238 );
#187 = ORIENTED_EDGE( '', *, *, #239, .T. );
#188 = ORIENTED_EDGE( '', *, *, #240, .F. );
#189 = ORIENTED_EDGE( '', *, *, #224, .F. );
#190 = ORIENTED_EDGE( '', *, *, #229, .T. );
#191 = CARTESIAN_POINT( '', ( -15.0000000000000, 0.000000000000000, 2.00000000000000 ) );
#192 = DIRECTION( '', ( 0.000000000000000, 1.00000000000000, 0.000000000000000 ) );
#193 = DIRECTION( '', ( 0.000000000000000, -0.000000000000000, 1.00000000000000 ) );
#194 = SURFACE_STYLE_FILL_AREA( #241 );
#195 = ORIENTED_EDGE( '', *, *, #234, .F. );
#196 = ORIENTED_EDGE( '', *, *, #232, .F. );
#197 = ORIENTED_EDGE( '', *, *, #242, .F. );
#198 = ORIENTED_EDGE( '', *, *, #228, .F. );
#199 = ORIENTED_EDGE( '', *, *, #236, .F. );
#200 = ORIENTED_EDGE( '', *, *, #243, .F. );
#201 = ORIENTED_EDGE( '', *, *, #239, .F. );
#202 = CARTESIAN_POINT( '', ( -0.000000000000000, 0.000000000000000, 0.000000000000000 ) );
#203 = DIRECTION( '', ( -0.000000000000000, 0.000000000000000, 1.00000000000000 ) );
#204 = DIRECTION( '', ( 1.00000000000000, 0.000000000000000, 0.000000000000000 ) );
#205 = SURFACE_STYLE_FILL_AREA( #244 );
#206 = ORIENTED_EDGE( '', *, *, #243, .T. );
#207 = ORIENTED_EDGE( '', *, *, #237, .F. );
#208 = ORIENTED_EDGE( '', *, *, #225, .F. );
#209 = ORIENTED_EDGE( '', *, *, #240, .T. );
#210 = CARTESIAN_POINT( '', ( 0.000000000000000, 0.000000000000000, 2.00000000000000 ) );
#211 = DIRECTION( '', ( -1.00000000000000, 6.12323399573677E-17, 0.000000000000000 ) );
#212 = DIRECTION( '', ( -6.12323399573677E-17, -1.00000000000000, 0.000000000000000 ) );
#213 = SURFACE_STYLE_FILL_AREA( #245 );
#214 = ORIENTED_EDGE( '', *, *, #242, .T. );
#215 = ORIENTED_EDGE( '', *, *, #222, .F. );
#216 = CARTESIAN_POINT( '', ( -7.50000000000000, 10.0000000000000, 2.00000000000000 ) );
#217 = DIRECTION( '', ( 0.000000000000000, -0.000000000000000, 1.00000000000000 ) );
#218 = DIRECTION( '', ( 1.00000000000000, 0.000000000000000, -0.000000000000000 ) );
#219 = FILL_AREA_STYLE( '', ( #246 ) );
#220 = EDGE_CURVE( '', #247, #247, #248, .T. );
#221 = EDGE_CURVE( '', #249, #249, #250, .T. );
#222 = EDGE_CURVE( '', #251, #251, #252, .T. );
#223 = EDGE_CURVE( '', #253, #254, #255, .T. );
#224 = EDGE_CURVE( '', #254, #256, #257, .T. );
#225 = EDGE_CURVE( '', #256, #258, #259, .T. );
#226 = EDGE_CURVE( '', #258, #253, #260, .T. );
#227 = FILL_AREA_STYLE( '', ( #261 ) );
#228 = EDGE_CURVE( '', #262, #263, #264, .T. );
#229 = EDGE_CURVE( '', #254, #263, #265, .T. );
#230 = EDGE_CURVE( '', #253, #262, #266, .T. );
#231 = FILL_AREA_STYLE( '', ( #267 ) );
#232 = EDGE_CURVE( '', #268, #268, #269, .T. );
#233 = FILL_AREA_STYLE( '', ( #270 ) );
#234 = EDGE_CURVE( '', #271, #271, #272, .T. );
#235 = FILL_AREA_STYLE( '', ( #273 ) );
#236 = EDGE_CURVE( '', #274, #262, #275, .T. );
#237 = EDGE_CURVE( '', #258, #274, #276, .T. );
#238 = FILL_AREA_STYLE( '', ( #277 ) );
#239 = EDGE_CURVE( '', #263, #278, #279, .T. );
#240 = EDGE_CURVE( '', #256, #278, #280, .T. );
#241 = FILL_AREA_STYLE( '', ( #281 ) );
#242 = EDGE_CURVE( '', #282, #282, #283, .T. );
#243 = EDGE_CURVE( '', #278, #274, #284, .T. );
#244 = FILL_AREA_STYLE( '', ( #285 ) );
#245 = FILL_AREA_STYLE( '', ( #286 ) );
#246 = FILL_AREA_STYLE_COLOUR( '', #287 );
#247 = VERTEX_POINT( '', #288 );
#248 = CIRCLE( '', #289, 4.05000000000000 );
#249 = VERTEX_POINT( '', #290 );
#250 = CIRCLE( '', #291, 4.05000000000000 );
#251 = VERTEX_POINT( '', #292 );
#252 = CIRCLE( '', #293, 4.05000000000000 );
#253 = VERTEX_POINT( '', #294 );
#254 = VERTEX_POINT( '', #295 );
#255 = LINE( '', #296, #297 );
#256 = VERTEX_POINT( '', #298 );
#257 = LINE( '', #299, #300 );
#258 = VERTEX_POINT( '', #301 );
#259 = LINE( '', #302, #303 );
#260 = LINE( '', #304, #305 );
#261 = FILL_AREA_STYLE_COLOUR( '', #306 );
#262 = VERTEX_POINT( '', #307 );
#263 = VERTEX_POINT( '', #308 );
#264 = LINE( '', #309, #310 );
#265 = LINE( '', #311, #312 );
#266 = LINE( '', #313, #314 );
#267 = FILL_AREA_STYLE_COLOUR( '', #315 );
#268 = VERTEX_POINT( '', #316 );
#269 = CIRCLE( '', #317, 2.05000000000000 );
#270 = FILL_AREA_STYLE_COLOUR( '', #318 );
#271 = VERTEX_POINT( '', #319 );
#272 = CIRCLE( '', #320, 2.05000000000000 );
#273 = FILL_AREA_STYLE_COLOUR( '', #321 );
#274 = VERTEX_POINT( '', #322 );
#275 = LINE( '', #323, #324 );
#276 = LINE( '', #325, #326 );
#277 = FILL_AREA_STYLE_COLOUR( '', #327 );
#278 = VERTEX_POINT( '', #328 );
#279 = LINE( '', #329, #330 );
#280 = LINE( '', #331, #332 );
#281 = FILL_AREA_STYLE_COLOUR( '', #333 );
#282 = VERTEX_POINT( '', #334 );
#283 = CIRCLE( '', #335, 2.05000000000000 );
#284 = LINE( '', #336, #337 );
#285 = FILL_AREA_STYLE_COLOUR( '', #338 );
#286 = FILL_AREA_STYLE_COLOUR( '', #339 );
#287 = COLOUR_RGB( '', 0.689999997600000, 0.689999997600000, 0.689999997600000 );
#288 = CARTESIAN_POINT( '', ( -11.5500000000000, 260.000000000000, 2.00000000000000 ) );
#289 = AXIS2_PLACEMENT_3D( '', #340, #341, #342 );
#290 = CARTESIAN_POINT( '', ( -11.5500000000000, 490.000000000000, 2.00000000000000 ) );
#291 = AXIS2_PLACEMENT_3D( '', #343, #344, #345 );
#292 = CARTESIAN_POINT( '', ( -11.5500000000000, 10.0000000000000, 2.00000000000000 ) );
#293 = AXIS2_PLACEMENT_3D( '', #346, #347, #348 );
#294 = CARTESIAN_POINT( '', ( -15.0000000000000, 510.000000000000, 2.00000000000000 ) );
#295 = CARTESIAN_POINT( '', ( -15.0000000000000, 0.000000000000000, 2.00000000000000 ) );
#296 = CARTESIAN_POINT( '', ( -15.0000000000000, 510.000000000000, 2.00000000000000 ) );
#297 = VECTOR( '', #349, 1000.00000000000 );
#298 = CARTESIAN_POINT( '', ( 0.000000000000000, 0.000000000000000, 2.00000000000000 ) );
#299 = CARTESIAN_POINT( '', ( -15.0000000000000, 0.000000000000000, 2.00000000000000 ) );
#300 = VECTOR( '', #350, 1000.00000000000 );
#301 = CARTESIAN_POINT( '', ( 3.12284933782575E-14, 510.000000000000, 2.00000000000000 ) );
#302 = CARTESIAN_POINT( '', ( 0.000000000000000, 0.000000000000000, 2.00000000000000 ) );
#303 = VECTOR( '', #351, 1000.00000000000 );
#304 = CARTESIAN_POINT( '', ( 3.12284933782575E-14, 510.000000000000, 2.00000000000000 ) );
#305 = VECTOR( '', #352, 1000.00000000000 );
#306 = COLOUR_RGB( '', 0.689999997600000, 0.689999997600000, 0.689999997600000 );
#307 = CARTESIAN_POINT( '', ( -15.0000000000000, 510.000000000000, 0.000000000000000 ) );
#308 = CARTESIAN_POINT( '', ( -15.0000000000000, 0.000000000000000, 0.000000000000000 ) );
#309 = CARTESIAN_POINT( '', ( -15.0000000000000, 510.000000000000, 0.000000000000000 ) );
#310 = VECTOR( '', #353, 1000.00000000000 );
#311 = CARTESIAN_POINT( '', ( -15.0000000000000, 0.000000000000000, 2.00000000000000 ) );
#312 = VECTOR( '', #354, 1000.00000000000 );
#313 = CARTESIAN_POINT( '', ( -15.0000000000000, 510.000000000000, 2.00000000000000 ) );
#314 = VECTOR( '', #355, 1000.00000000000 );
#315 = COLOUR_RGB( '', 0.689999997600000, 0.689999997600000, 0.689999997600000 );
#316 = CARTESIAN_POINT( '', ( -9.54999999999997, 490.000000000000, 0.000000000000000 ) );
#317 = AXIS2_PLACEMENT_3D( '', #356, #357, #358 );
#318 = COLOUR_RGB( '', 0.689999997600000, 0.689999997600000, 0.689999997600000 );
#319 = CARTESIAN_POINT( '', ( -9.54999999999998, 260.000000000000, 0.000000000000000 ) );
#320 = AXIS2_PLACEMENT_3D( '', #359, #360, #361 );
#321 = COLOUR_RGB( '', 0.689999997600000, 0.689999997600000, 0.689999997600000 );
#322 = CARTESIAN_POINT( '', ( 3.12284933782575E-14, 510.000000000000, 0.000000000000000 ) );
#323 = CARTESIAN_POINT( '', ( 3.12284933782575E-14, 510.000000000000, 0.000000000000000 ) );
#324 = VECTOR( '', #362, 1000.00000000000 );
#325 = CARTESIAN_POINT( '', ( 3.12284933782575E-14, 510.000000000000, 2.00000000000000 ) );
#326 = VECTOR( '', #363, 1000.00000000000 );
#327 = COLOUR_RGB( '', 0.689999997600000, 0.689999997600000, 0.689999997600000 );
#328 = CARTESIAN_POINT( '', ( 0.000000000000000, 0.000000000000000, 0.000000000000000 ) );
#329 = CARTESIAN_POINT( '', ( -15.0000000000000, 0.000000000000000, 0.000000000000000 ) );
#330 = VECTOR( '', #364, 1000.00000000000 );
#331 = CARTESIAN_POINT( '', ( 0.000000000000000, 0.000000000000000, 2.00000000000000 ) );
#332 = VECTOR( '', #365, 1000.00000000000 );
#333 = COLOUR_RGB( '', 0.689999997600000, 0.689999997600000, 0.689999997600000 );
#334 = CARTESIAN_POINT( '', ( -9.55000000000000, 10.0000000000000, 0.000000000000000 ) );
#335 = AXIS2_PLACEMENT_3D( '', #366, #367, #368 );
#336 = CARTESIAN_POINT( '', ( 0.000000000000000, 0.000000000000000, 0.000000000000000 ) );
#337 = VECTOR( '', #369, 1000.00000000000 );
#338 = COLOUR_RGB( '', 0.689999997600000, 0.689999997600000, 0.689999997600000 );
#339 = COLOUR_RGB( '', 0.689999997600000, 0.689999997600000, 0.689999997600000 );
#340 = CARTESIAN_POINT( '', ( -7.49999999999998, 260.000000000000, 2.00000000000000 ) );
#341 = DIRECTION( '', ( -0.000000000000000, 0.000000000000000, -1.00000000000000 ) );
#342 = DIRECTION( '', ( -1.00000000000000, 0.000000000000000, 0.000000000000000 ) );
#343 = CARTESIAN_POINT( '', ( -7.49999999999997, 490.000000000000, 2.00000000000000 ) );
#344 = DIRECTION( '', ( -0.000000000000000, 0.000000000000000, -1.00000000000000 ) );
#345 = DIRECTION( '', ( -1.00000000000000, 0.000000000000000, 0.000000000000000 ) );
#346 = CARTESIAN_POINT( '', ( -7.50000000000000, 10.0000000000000, 2.00000000000000 ) );
#347 = DIRECTION( '', ( -0.000000000000000, 0.000000000000000, -1.00000000000000 ) );
#348 = DIRECTION( '', ( -1.00000000000000, 0.000000000000000, 0.000000000000000 ) );
#349 = DIRECTION( '', ( -6.12255344462402E-17, -1.00000000000000, 0.000000000000000 ) );
#350 = DIRECTION( '', ( 1.00000000000000, 0.000000000000000, 0.000000000000000 ) );
#351 = DIRECTION( '', ( 6.12323399573677E-17, 1.00000000000000, 0.000000000000000 ) );
#352 = DIRECTION( '', ( -1.00000000000000, 0.000000000000000, 0.000000000000000 ) );
#353 = DIRECTION( '', ( -6.12255344462402E-17, -1.00000000000000, 0.000000000000000 ) );
#354 = DIRECTION( '', ( -0.000000000000000, -0.000000000000000, -1.00000000000000 ) );
#355 = DIRECTION( '', ( -0.000000000000000, -0.000000000000000, -1.00000000000000 ) );
#356 = CARTESIAN_POINT( '', ( -7.49999999999997, 490.000000000000, 0.000000000000000 ) );
#357 = DIRECTION( '', ( -0.000000000000000, 0.000000000000000, -1.00000000000000 ) );
#358 = DIRECTION( '', ( -1.00000000000000, 0.000000000000000, 0.000000000000000 ) );
#359 = CARTESIAN_POINT( '', ( -7.49999999999998, 260.000000000000, 0.000000000000000 ) );
#360 = DIRECTION( '', ( -0.000000000000000, 0.000000000000000, -1.00000000000000 ) );
#361 = DIRECTION( '', ( -1.00000000000000, 0.000000000000000, 0.000000000000000 ) );
#362 = DIRECTION( '', ( -1.00000000000000, 0.000000000000000, 0.000000000000000 ) );
#363 = DIRECTION( '', ( -0.000000000000000, -0.000000000000000, -1.00000000000000 ) );
#364 = DIRECTION( '', ( 1.00000000000000, 0.000000000000000, 0.000000000000000 ) );
#365 = DIRECTION( '', ( -0.000000000000000, -0.000000000000000, -1.00000000000000 ) );
#366 = CARTESIAN_POINT( '', ( -7.50000000000000, 10.0000000000000, 0.000000000000000 ) );
#367 = DIRECTION( '', ( -0.000000000000000, 0.000000000000000, -1.00000000000000 ) );
#368 = DIRECTION( '', ( -1.00000000000000, 0.000000000000000, 0.000000000000000 ) );
#369 = DIRECTION( '', ( 6.12323399573677E-17, 1.00000000000000, 0.000000000000000 ) );
ENDSEC;
END-ISO-10303-21;
