ISO-10303-21;
HEADER;
FILE_DESCRIPTION( ( 'STEP AP214' ), '1' );
FILE_NAME( '//goodhand-server/Shared Folders/GoodHand Data/Kipp CAD/K1129/K1129.102215.stp', '2020-12-10T10:16:01', ( '' ), ( '' ), ' ', 'PARTsolutions', ' ' );
FILE_SCHEMA( ( 'AUTOMOTIVE_DESIGN { 1 0 10303 214 1 1 1 1 }' ) );
ENDSEC;
DATA;
#1 = MECHANICAL_DESIGN_GEOMETRIC_PRESENTATION_REPRESENTATION( ' ', ( #10, #11, #12, #13, #14, #15, #16, #17, #18, #19, #20, #21 ), #6 );
#2 = PRODUCT_DEFINITION_CONTEXT( '', #22, 'design' );
#3 = APPLICATION_PROTOCOL_DEFINITION( 'international standard', 'automotive_design', 2001, #22 );
#4 = PRODUCT_CATEGORY_RELATIONSHIP( 'NONE', 'NONE', #23, #24 );
#5 = SHAPE_DEFINITION_REPRESENTATION( #25, #26 );
#6 =  ( GEOMETRIC_REPRESENTATION_CONTEXT( 3 )GLOBAL_UNCERTAINTY_ASSIGNED_CONTEXT( ( #29 ) )GLOBAL_UNIT_ASSIGNED_CONTEXT( ( #31, #32, #33 ) )REPRESENTATION_CONTEXT( 'NONE', 'WORKSPACE' ) );
#10 = STYLED_ITEM( '', ( #35 ), #36 );
#11 = STYLED_ITEM( '', ( #37 ), #38 );
#12 = STYLED_ITEM( '', ( #39 ), #40 );
#13 = STYLED_ITEM( '', ( #41 ), #42 );
#14 = STYLED_ITEM( '', ( #43 ), #44 );
#15 = STYLED_ITEM( '', ( #45 ), #46 );
#16 = STYLED_ITEM( '', ( #47 ), #48 );
#17 = STYLED_ITEM( '', ( #49 ), #50 );
#18 = STYLED_ITEM( '', ( #51 ), #52 );
#19 = STYLED_ITEM( '', ( #53 ), #54 );
#20 = STYLED_ITEM( '', ( #55 ), #56 );
#21 = STYLED_ITEM( '', ( #57 ), #58 );
#22 = APPLICATION_CONTEXT( 'core data for automotive mechanical design processes' );
#23 = PRODUCT_CATEGORY( 'part', 'NONE' );
#24 = PRODUCT_RELATED_PRODUCT_CATEGORY( 'detail', ' ', ( #59 ) );
#25 = PRODUCT_DEFINITION_SHAPE( 'NONE', 'NONE', #60 );
#26 = ADVANCED_BREP_SHAPE_REPRESENTATION( '_K1129.102215', ( #61, #62 ), #6 );
#29 = UNCERTAINTY_MEASURE_WITH_UNIT( LENGTH_MEASURE( 0.00100000000000000 ), #31, '', '' );
#31 =  ( CONVERSION_BASED_UNIT( 'MILLIMETRE', #65 )LENGTH_UNIT(  )NAMED_UNIT( #68 ) );
#32 =  ( NAMED_UNIT( #70 )PLANE_ANGLE_UNIT(  )SI_UNIT( $, .RADIAN. ) );
#33 =  ( NAMED_UNIT( #70 )SI_UNIT( $, .STERADIAN. )SOLID_ANGLE_UNIT(  ) );
#35 = PRESENTATION_STYLE_ASSIGNMENT( ( #76 ) );
#36 = ADVANCED_FACE( '', ( #77 ), #78, .T. );
#37 = PRESENTATION_STYLE_ASSIGNMENT( ( #79 ) );
#38 = ADVANCED_FACE( '', ( #80, #81 ), #82, .T. );
#39 = PRESENTATION_STYLE_ASSIGNMENT( ( #83 ) );
#40 = ADVANCED_FACE( '', ( #84, #85 ), #86, .T. );
#41 = PRESENTATION_STYLE_ASSIGNMENT( ( #87 ) );
#42 = ADVANCED_FACE( '', ( #88 ), #89, .T. );
#43 = PRESENTATION_STYLE_ASSIGNMENT( ( #90 ) );
#44 = ADVANCED_FACE( '', ( #91 ), #92, .F. );
#45 = PRESENTATION_STYLE_ASSIGNMENT( ( #93 ) );
#46 = ADVANCED_FACE( '', ( #94 ), #95, .T. );
#47 = PRESENTATION_STYLE_ASSIGNMENT( ( #96 ) );
#48 = ADVANCED_FACE( '', ( #97 ), #98, .F. );
#49 = PRESENTATION_STYLE_ASSIGNMENT( ( #99 ) );
#50 = ADVANCED_FACE( '', ( #100 ), #101, .T. );
#51 = PRESENTATION_STYLE_ASSIGNMENT( ( #102 ) );
#52 = ADVANCED_FACE( '', ( #103, #104 ), #105, .T. );
#53 = PRESENTATION_STYLE_ASSIGNMENT( ( #106 ) );
#54 = ADVANCED_FACE( '', ( #107, #108 ), #109, .F. );
#55 = PRESENTATION_STYLE_ASSIGNMENT( ( #110 ) );
#56 = ADVANCED_FACE( '', ( #111 ), #112, .T. );
#57 = PRESENTATION_STYLE_ASSIGNMENT( ( #113 ) );
#58 = ADVANCED_FACE( '', ( #114 ), #115, .T. );
#59 = PRODUCT( '_K1129.102215', '_K1129.102215', 'PART-_K1129.102215-DESC', ( #116 ) );
#60 = PRODUCT_DEFINITION( 'NONE', 'NONE', #117, #2 );
#61 = MANIFOLD_SOLID_BREP( '_K1129.102215', #118 );
#62 = AXIS2_PLACEMENT_3D( '', #119, #120, #121 );
#65 = LENGTH_MEASURE_WITH_UNIT( LENGTH_MEASURE( 1.00000000000000 ), #122 );
#68 = DIMENSIONAL_EXPONENTS( 1.00000000000000, 0.000000000000000, 0.000000000000000, 0.000000000000000, 0.000000000000000, 0.000000000000000, 0.000000000000000 );
#70 = DIMENSIONAL_EXPONENTS( 0.000000000000000, 0.000000000000000, 0.000000000000000, 0.000000000000000, 0.000000000000000, 0.000000000000000, 0.000000000000000 );
#76 = SURFACE_STYLE_USAGE( .BOTH., #123 );
#77 = FACE_OUTER_BOUND( '', #124, .T. );
#78 = PLANE( '', #125 );
#79 = SURFACE_STYLE_USAGE( .BOTH., #126 );
#80 = FACE_OUTER_BOUND( '', #127, .T. );
#81 = FACE_BOUND( '', #128, .T. );
#82 = CONICAL_SURFACE( '', #129, 10.6571313302000, 0.769690200100000 );
#83 = SURFACE_STYLE_USAGE( .BOTH., #130 );
#84 = FACE_BOUND( '', #131, .T. );
#85 = FACE_OUTER_BOUND( '', #132, .T. );
#86 = CONICAL_SURFACE( '', #133, 10.8585740493000, 0.801106126700000 );
#87 = SURFACE_STYLE_USAGE( .BOTH., #134 );
#88 = FACE_OUTER_BOUND( '', #135, .T. );
#89 = PLANE( '', #136 );
#90 = SURFACE_STYLE_USAGE( .BOTH., #137 );
#91 = FACE_OUTER_BOUND( '', #138, .T. );
#92 = PLANE( '', #139 );
#93 = SURFACE_STYLE_USAGE( .BOTH., #140 );
#94 = FACE_OUTER_BOUND( '', #141, .T. );
#95 = PLANE( '', #142 );
#96 = SURFACE_STYLE_USAGE( .BOTH., #143 );
#97 = FACE_OUTER_BOUND( '', #144, .T. );
#98 = PLANE( '', #145 );
#99 = SURFACE_STYLE_USAGE( .BOTH., #146 );
#100 = FACE_OUTER_BOUND( '', #147, .T. );
#101 = PLANE( '', #148 );
#102 = SURFACE_STYLE_USAGE( .BOTH., #149 );
#103 = FACE_BOUND( '', #150, .T. );
#104 = FACE_OUTER_BOUND( '', #151, .T. );
#105 = CONICAL_SURFACE( '', #152, 11.1414259507000, 0.0314159265000000 );
#106 = SURFACE_STYLE_USAGE( .BOTH., #153 );
#107 = FACE_OUTER_BOUND( '', #154, .T. );
#108 = FACE_BOUND( '', #155, .T. );
#109 = PLANE( '', #156 );
#110 = SURFACE_STYLE_USAGE( .BOTH., #157 );
#111 = FACE_OUTER_BOUND( '', #158, .T. );
#112 = PLANE( '', #159 );
#113 = SURFACE_STYLE_USAGE( .BOTH., #160 );
#114 = FACE_OUTER_BOUND( '', #161, .T. );
#115 = PLANE( '', #162 );
#116 = PRODUCT_CONTEXT( '', #22, 'mechanical' );
#117 = PRODUCT_DEFINITION_FORMATION_WITH_SPECIFIED_SOURCE( ' ', 'NONE', #59, .NOT_KNOWN. );
#118 = CLOSED_SHELL( '', ( #38, #54, #42, #46, #50, #44, #40, #52, #56, #58, #36, #48 ) );
#119 = CARTESIAN_POINT( '', ( 0.000000000000000, 0.000000000000000, 0.000000000000000 ) );
#120 = DIRECTION( '', ( 0.000000000000000, 0.000000000000000, 1.00000000000000 ) );
#121 = DIRECTION( '', ( 1.00000000000000, 0.000000000000000, 0.000000000000000 ) );
#122 =  ( LENGTH_UNIT(  )NAMED_UNIT( #68 )SI_UNIT( .MILLI., .METRE. ) );
#123 = SURFACE_SIDE_STYLE( '', ( #164 ) );
#124 = EDGE_LOOP( '', ( #165, #166, #167, #168 ) );
#125 = AXIS2_PLACEMENT_3D( '', #169, #170, #171 );
#126 = SURFACE_SIDE_STYLE( '', ( #172 ) );
#127 = EDGE_LOOP( '', ( #173 ) );
#128 = EDGE_LOOP( '', ( #174 ) );
#129 = AXIS2_PLACEMENT_3D( '', #175, #176, #177 );
#130 = SURFACE_SIDE_STYLE( '', ( #178 ) );
#131 = EDGE_LOOP( '', ( #179 ) );
#132 = EDGE_LOOP( '', ( #180 ) );
#133 = AXIS2_PLACEMENT_3D( '', #181, #182, #183 );
#134 = SURFACE_SIDE_STYLE( '', ( #184 ) );
#135 = EDGE_LOOP( '', ( #185, #186, #187, #188 ) );
#136 = AXIS2_PLACEMENT_3D( '', #189, #190, #191 );
#137 = SURFACE_SIDE_STYLE( '', ( #192 ) );
#138 = EDGE_LOOP( '', ( #193 ) );
#139 = AXIS2_PLACEMENT_3D( '', #194, #195, #196 );
#140 = SURFACE_SIDE_STYLE( '', ( #197 ) );
#141 = EDGE_LOOP( '', ( #198, #199, #200, #201 ) );
#142 = AXIS2_PLACEMENT_3D( '', #202, #203, #204 );
#143 = SURFACE_SIDE_STYLE( '', ( #205 ) );
#144 = EDGE_LOOP( '', ( #206, #207, #208, #209, #210, #211 ) );
#145 = AXIS2_PLACEMENT_3D( '', #212, #213, #214 );
#146 = SURFACE_SIDE_STYLE( '', ( #215 ) );
#147 = EDGE_LOOP( '', ( #216, #217, #218, #219 ) );
#148 = AXIS2_PLACEMENT_3D( '', #220, #221, #222 );
#149 = SURFACE_SIDE_STYLE( '', ( #223 ) );
#150 = EDGE_LOOP( '', ( #224 ) );
#151 = EDGE_LOOP( '', ( #225 ) );
#152 = AXIS2_PLACEMENT_3D( '', #226, #227, #228 );
#153 = SURFACE_SIDE_STYLE( '', ( #229 ) );
#154 = EDGE_LOOP( '', ( #230 ) );
#155 = EDGE_LOOP( '', ( #231, #232, #233, #234, #235, #236 ) );
#156 = AXIS2_PLACEMENT_3D( '', #237, #238, #239 );
#157 = SURFACE_SIDE_STYLE( '', ( #240 ) );
#158 = EDGE_LOOP( '', ( #241, #242, #243, #244 ) );
#159 = AXIS2_PLACEMENT_3D( '', #245, #246, #247 );
#160 = SURFACE_SIDE_STYLE( '', ( #248 ) );
#161 = EDGE_LOOP( '', ( #249, #250, #251, #252 ) );
#162 = AXIS2_PLACEMENT_3D( '', #253, #254, #255 );
#164 = SURFACE_STYLE_FILL_AREA( #256 );
#165 = ORIENTED_EDGE( '', *, *, #257, .F. );
#166 = ORIENTED_EDGE( '', *, *, #258, .F. );
#167 = ORIENTED_EDGE( '', *, *, #259, .T. );
#168 = ORIENTED_EDGE( '', *, *, #260, .T. );
#169 = CARTESIAN_POINT( '', ( 5.00000000000000, 5.77350269189626, 0.000000000000000 ) );
#170 = DIRECTION( '', ( 0.000000000000000, -0.866025403784439, -0.500000000000000 ) );
#171 = DIRECTION( '', ( 0.000000000000000, 0.500000000000000, -0.866025403784439 ) );
#172 = SURFACE_STYLE_FILL_AREA( #261 );
#173 = ORIENTED_EDGE( '', *, *, #262, .F. );
#174 = ORIENTED_EDGE( '', *, *, #263, .T. );
#175 = CARTESIAN_POINT( '', ( 0.000000000000000, 0.000000000000000, 0.000000000000000 ) );
#176 = DIRECTION( '', ( 1.00000000000000, -0.000000000000000, -0.000000000000000 ) );
#177 = DIRECTION( '', ( -0.000000000000000, 0.000000000000000, -1.00000000000000 ) );
#178 = SURFACE_STYLE_FILL_AREA( #264 );
#179 = ORIENTED_EDGE( '', *, *, #265, .F. );
#180 = ORIENTED_EDGE( '', *, *, #266, .T. );
#181 = CARTESIAN_POINT( '', ( 9.50024671981713, 0.000000000000000, 0.000000000000000 ) );
#182 = DIRECTION( '', ( -1.00000000000000, 0.000000000000000, -0.000000000000000 ) );
#183 = DIRECTION( '', ( 0.000000000000000, 0.000000000000000, 1.00000000000000 ) );
#184 = SURFACE_STYLE_FILL_AREA( #267 );
#185 = ORIENTED_EDGE( '', *, *, #268, .F. );
#186 = ORIENTED_EDGE( '', *, *, #269, .F. );
#187 = ORIENTED_EDGE( '', *, *, #270, .T. );
#188 = ORIENTED_EDGE( '', *, *, #271, .T. );
#189 = CARTESIAN_POINT( '', ( 5.00000000000000, -2.88675134594813, 5.00000000000000 ) );
#190 = DIRECTION( '', ( 0.000000000000000, 0.866025403784439, -0.500000000000000 ) );
#191 = DIRECTION( '', ( 0.000000000000000, 0.500000000000000, 0.866025403784439 ) );
#192 = SURFACE_STYLE_FILL_AREA( #272 );
#193 = ORIENTED_EDGE( '', *, *, #265, .T. );
#194 = CARTESIAN_POINT( '', ( 10.0000000000000, 10.3428686697832, 0.000000000000000 ) );
#195 = DIRECTION( '', ( -1.00000000000000, 0.000000000000000, 0.000000000000000 ) );
#196 = DIRECTION( '', ( 0.000000000000000, 0.000000000000000, 1.00000000000000 ) );
#197 = SURFACE_STYLE_FILL_AREA( #273 );
#198 = ORIENTED_EDGE( '', *, *, #274, .F. );
#199 = ORIENTED_EDGE( '', *, *, #271, .F. );
#200 = ORIENTED_EDGE( '', *, *, #275, .T. );
#201 = ORIENTED_EDGE( '', *, *, #276, .T. );
#202 = CARTESIAN_POINT( '', ( 5.00000000000000, -5.77350269189626, 0.000000000000000 ) );
#203 = DIRECTION( '', ( -0.000000000000000, 0.866025403784439, 0.500000000000000 ) );
#204 = DIRECTION( '', ( 0.000000000000000, -0.500000000000000, 0.866025403784439 ) );
#205 = SURFACE_STYLE_FILL_AREA( #277 );
#206 = ORIENTED_EDGE( '', *, *, #278, .F. );
#207 = ORIENTED_EDGE( '', *, *, #259, .F. );
#208 = ORIENTED_EDGE( '', *, *, #279, .F. );
#209 = ORIENTED_EDGE( '', *, *, #280, .F. );
#210 = ORIENTED_EDGE( '', *, *, #275, .F. );
#211 = ORIENTED_EDGE( '', *, *, #270, .F. );
#212 = CARTESIAN_POINT( '', ( 5.00000000000000, 0.000000000000000, 0.000000000000000 ) );
#213 = DIRECTION( '', ( 1.00000000000000, 0.000000000000000, 0.000000000000000 ) );
#214 = DIRECTION( '', ( 0.000000000000000, 0.000000000000000, -1.00000000000000 ) );
#215 = SURFACE_STYLE_FILL_AREA( #281 );
#216 = ORIENTED_EDGE( '', *, *, #282, .F. );
#217 = ORIENTED_EDGE( '', *, *, #260, .F. );
#218 = ORIENTED_EDGE( '', *, *, #278, .T. );
#219 = ORIENTED_EDGE( '', *, *, #269, .T. );
#220 = CARTESIAN_POINT( '', ( 5.00000000000000, 2.88675134594813, 5.00000000000000 ) );
#221 = DIRECTION( '', ( 0.000000000000000, 0.000000000000000, -1.00000000000000 ) );
#222 = DIRECTION( '', ( -1.00000000000000, 0.000000000000000, 0.000000000000000 ) );
#223 = SURFACE_STYLE_FILL_AREA( #283 );
#224 = ORIENTED_EDGE( '', *, *, #266, .F. );
#225 = ORIENTED_EDGE( '', *, *, #262, .T. );
#226 = CARTESIAN_POINT( '', ( 0.499753280182865, 0.000000000000000, 0.000000000000000 ) );
#227 = DIRECTION( '', ( -1.00000000000000, 0.000000000000000, -0.000000000000000 ) );
#228 = DIRECTION( '', ( 0.000000000000000, 0.000000000000000, 1.00000000000000 ) );
#229 = SURFACE_STYLE_FILL_AREA( #284 );
#230 = ORIENTED_EDGE( '', *, *, #263, .F. );
#231 = ORIENTED_EDGE( '', *, *, #282, .T. );
#232 = ORIENTED_EDGE( '', *, *, #268, .T. );
#233 = ORIENTED_EDGE( '', *, *, #274, .T. );
#234 = ORIENTED_EDGE( '', *, *, #285, .T. );
#235 = ORIENTED_EDGE( '', *, *, #286, .T. );
#236 = ORIENTED_EDGE( '', *, *, #257, .T. );
#237 = CARTESIAN_POINT( '', ( 0.000000000000000, 0.000000000000000, 0.000000000000000 ) );
#238 = DIRECTION( '', ( 1.00000000000000, 0.000000000000000, -0.000000000000000 ) );
#239 = DIRECTION( '', ( -0.000000000000000, 0.000000000000000, -1.00000000000000 ) );
#240 = SURFACE_STYLE_FILL_AREA( #287 );
#241 = ORIENTED_EDGE( '', *, *, #285, .F. );
#242 = ORIENTED_EDGE( '', *, *, #276, .F. );
#243 = ORIENTED_EDGE( '', *, *, #280, .T. );
#244 = ORIENTED_EDGE( '', *, *, #288, .T. );
#245 = CARTESIAN_POINT( '', ( 5.00000000000000, -2.88675134594813, -5.00000000000000 ) );
#246 = DIRECTION( '', ( 0.000000000000000, 0.000000000000000, 1.00000000000000 ) );
#247 = DIRECTION( '', ( 1.00000000000000, 0.000000000000000, -0.000000000000000 ) );
#248 = SURFACE_STYLE_FILL_AREA( #289 );
#249 = ORIENTED_EDGE( '', *, *, #286, .F. );
#250 = ORIENTED_EDGE( '', *, *, #288, .F. );
#251 = ORIENTED_EDGE( '', *, *, #279, .T. );
#252 = ORIENTED_EDGE( '', *, *, #258, .T. );
#253 = CARTESIAN_POINT( '', ( 5.00000000000000, 2.88675134594813, -5.00000000000000 ) );
#254 = DIRECTION( '', ( 0.000000000000000, -0.866025403784439, 0.500000000000000 ) );
#255 = DIRECTION( '', ( 0.000000000000000, -0.500000000000000, -0.866025403784439 ) );
#256 = FILL_AREA_STYLE( '', ( #290 ) );
#257 = EDGE_CURVE( '', #291, #292, #293, .T. );
#258 = EDGE_CURVE( '', #294, #291, #295, .T. );
#259 = EDGE_CURVE( '', #294, #296, #297, .T. );
#260 = EDGE_CURVE( '', #296, #292, #298, .T. );
#261 = FILL_AREA_STYLE( '', ( #299 ) );
#262 = EDGE_CURVE( '', #300, #300, #301, .T. );
#263 = EDGE_CURVE( '', #302, #302, #303, .T. );
#264 = FILL_AREA_STYLE( '', ( #304 ) );
#265 = EDGE_CURVE( '', #305, #305, #306, .T. );
#266 = EDGE_CURVE( '', #307, #307, #308, .T. );
#267 = FILL_AREA_STYLE( '', ( #309 ) );
#268 = EDGE_CURVE( '', #310, #311, #312, .T. );
#269 = EDGE_CURVE( '', #313, #310, #314, .T. );
#270 = EDGE_CURVE( '', #313, #315, #316, .T. );
#271 = EDGE_CURVE( '', #315, #311, #317, .T. );
#272 = FILL_AREA_STYLE( '', ( #318 ) );
#273 = FILL_AREA_STYLE( '', ( #319 ) );
#274 = EDGE_CURVE( '', #311, #320, #321, .T. );
#275 = EDGE_CURVE( '', #315, #322, #323, .T. );
#276 = EDGE_CURVE( '', #322, #320, #324, .T. );
#277 = FILL_AREA_STYLE( '', ( #325 ) );
#278 = EDGE_CURVE( '', #296, #313, #326, .T. );
#279 = EDGE_CURVE( '', #327, #294, #328, .T. );
#280 = EDGE_CURVE( '', #322, #327, #329, .T. );
#281 = FILL_AREA_STYLE( '', ( #330 ) );
#282 = EDGE_CURVE( '', #292, #310, #331, .T. );
#283 = FILL_AREA_STYLE( '', ( #332 ) );
#284 = FILL_AREA_STYLE( '', ( #333 ) );
#285 = EDGE_CURVE( '', #320, #334, #335, .T. );
#286 = EDGE_CURVE( '', #334, #291, #336, .T. );
#287 = FILL_AREA_STYLE( '', ( #337 ) );
#288 = EDGE_CURVE( '', #327, #334, #338, .T. );
#289 = FILL_AREA_STYLE( '', ( #339 ) );
#290 = FILL_AREA_STYLE_COLOUR( '', #340 );
#291 = VERTEX_POINT( '', #341 );
#292 = VERTEX_POINT( '', #342 );
#293 = LINE( '', #343, #344 );
#294 = VERTEX_POINT( '', #345 );
#295 = LINE( '', #346, #347 );
#296 = VERTEX_POINT( '', #348 );
#297 = LINE( '', #349, #350 );
#298 = LINE( '', #351, #352 );
#299 = FILL_AREA_STYLE_COLOUR( '', #353 );
#300 = VERTEX_POINT( '', #354 );
#301 = CIRCLE( '', #355, 11.1414259507000 );
#302 = VERTEX_POINT( '', #356 );
#303 = CIRCLE( '', #357, 10.6571313302000 );
#304 = FILL_AREA_STYLE_COLOUR( '', #358 );
#305 = VERTEX_POINT( '', #359 );
#306 = CIRCLE( '', #360, 10.3428686698000 );
#307 = VERTEX_POINT( '', #361 );
#308 = CIRCLE( '', #362, 10.8585740493000 );
#309 = FILL_AREA_STYLE_COLOUR( '', #363 );
#310 = VERTEX_POINT( '', #364 );
#311 = VERTEX_POINT( '', #365 );
#312 = LINE( '', #366, #367 );
#313 = VERTEX_POINT( '', #368 );
#314 = LINE( '', #369, #370 );
#315 = VERTEX_POINT( '', #371 );
#316 = LINE( '', #372, #373 );
#317 = LINE( '', #374, #375 );
#318 = FILL_AREA_STYLE_COLOUR( '', #376 );
#319 = FILL_AREA_STYLE_COLOUR( '', #377 );
#320 = VERTEX_POINT( '', #378 );
#321 = LINE( '', #379, #380 );
#322 = VERTEX_POINT( '', #381 );
#323 = LINE( '', #382, #383 );
#324 = LINE( '', #384, #385 );
#325 = FILL_AREA_STYLE_COLOUR( '', #386 );
#326 = LINE( '', #387, #388 );
#327 = VERTEX_POINT( '', #389 );
#328 = LINE( '', #390, #391 );
#329 = LINE( '', #392, #393 );
#330 = FILL_AREA_STYLE_COLOUR( '', #394 );
#331 = LINE( '', #395, #396 );
#332 = FILL_AREA_STYLE_COLOUR( '', #397 );
#333 = FILL_AREA_STYLE_COLOUR( '', #398 );
#334 = VERTEX_POINT( '', #399 );
#335 = LINE( '', #400, #401 );
#336 = LINE( '', #402, #403 );
#337 = FILL_AREA_STYLE_COLOUR( '', #404 );
#338 = LINE( '', #405, #406 );
#339 = FILL_AREA_STYLE_COLOUR( '', #407 );
#340 = COLOUR_RGB( '', 0.689999997600000, 0.689999997600000, 0.689999997600000 );
#341 = CARTESIAN_POINT( '', ( 0.000000000000000, 5.77350269189626, 0.000000000000000 ) );
#342 = CARTESIAN_POINT( '', ( 0.000000000000000, 2.88675134594813, 5.00000000000000 ) );
#343 = CARTESIAN_POINT( '', ( 0.000000000000000, 5.77350269189626, 0.000000000000000 ) );
#344 = VECTOR( '', #408, 1000.00000000000 );
#345 = CARTESIAN_POINT( '', ( 5.00000000000000, 5.77350269189626, 0.000000000000000 ) );
#346 = CARTESIAN_POINT( '', ( 5.00000000000000, 5.77350269189626, 0.000000000000000 ) );
#347 = VECTOR( '', #409, 1000.00000000000 );
#348 = CARTESIAN_POINT( '', ( 5.00000000000000, 2.88675134594813, 5.00000000000000 ) );
#349 = CARTESIAN_POINT( '', ( 5.00000000000000, 5.77350269189626, 0.000000000000000 ) );
#350 = VECTOR( '', #410, 1000.00000000000 );
#351 = CARTESIAN_POINT( '', ( 5.00000000000000, 2.88675134594813, 5.00000000000000 ) );
#352 = VECTOR( '', #411, 1000.00000000000 );
#353 = COLOUR_RGB( '', 0.689999997600000, 0.689999997600000, 0.689999997600000 );
#354 = CARTESIAN_POINT( '', ( 0.499753280182865, 0.000000000000000, -11.1414259506777 ) );
#355 = AXIS2_PLACEMENT_3D( '', #412, #413, #414 );
#356 = CARTESIAN_POINT( '', ( 0.000000000000000, 0.000000000000000, -10.6571313302168 ) );
#357 = AXIS2_PLACEMENT_3D( '', #415, #416, #417 );
#358 = COLOUR_RGB( '', 0.689999997600000, 0.689999997600000, 0.689999997600000 );
#359 = CARTESIAN_POINT( '', ( 10.0000000000000, 0.000000000000000, -10.3428686697832 ) );
#360 = AXIS2_PLACEMENT_3D( '', #418, #419, #420 );
#361 = CARTESIAN_POINT( '', ( 9.50024671981713, 0.000000000000000, -10.8585740493223 ) );
#362 = AXIS2_PLACEMENT_3D( '', #421, #422, #423 );
#363 = COLOUR_RGB( '', 0.689999997600000, 0.689999997600000, 0.689999997600000 );
#364 = CARTESIAN_POINT( '', ( 0.000000000000000, -2.88675134594813, 5.00000000000000 ) );
#365 = CARTESIAN_POINT( '', ( 0.000000000000000, -5.77350269189626, 0.000000000000000 ) );
#366 = CARTESIAN_POINT( '', ( 0.000000000000000, -2.88675134594813, 5.00000000000000 ) );
#367 = VECTOR( '', #424, 1000.00000000000 );
#368 = CARTESIAN_POINT( '', ( 5.00000000000000, -2.88675134594813, 5.00000000000000 ) );
#369 = CARTESIAN_POINT( '', ( 5.00000000000000, -2.88675134594813, 5.00000000000000 ) );
#370 = VECTOR( '', #425, 1000.00000000000 );
#371 = CARTESIAN_POINT( '', ( 5.00000000000000, -5.77350269189626, 0.000000000000000 ) );
#372 = CARTESIAN_POINT( '', ( 5.00000000000000, -2.88675134594813, 5.00000000000000 ) );
#373 = VECTOR( '', #426, 1000.00000000000 );
#374 = CARTESIAN_POINT( '', ( 5.00000000000000, -5.77350269189626, 0.000000000000000 ) );
#375 = VECTOR( '', #427, 1000.00000000000 );
#376 = COLOUR_RGB( '', 0.689999997600000, 0.689999997600000, 0.689999997600000 );
#377 = COLOUR_RGB( '', 0.689999997600000, 0.689999997600000, 0.689999997600000 );
#378 = CARTESIAN_POINT( '', ( 0.000000000000000, -2.88675134594813, -5.00000000000000 ) );
#379 = CARTESIAN_POINT( '', ( 0.000000000000000, -5.77350269189626, 0.000000000000000 ) );
#380 = VECTOR( '', #428, 1000.00000000000 );
#381 = CARTESIAN_POINT( '', ( 5.00000000000000, -2.88675134594813, -5.00000000000000 ) );
#382 = CARTESIAN_POINT( '', ( 5.00000000000000, -5.77350269189626, 0.000000000000000 ) );
#383 = VECTOR( '', #429, 1000.00000000000 );
#384 = CARTESIAN_POINT( '', ( 5.00000000000000, -2.88675134594813, -5.00000000000000 ) );
#385 = VECTOR( '', #430, 1000.00000000000 );
#386 = COLOUR_RGB( '', 0.689999997600000, 0.689999997600000, 0.689999997600000 );
#387 = CARTESIAN_POINT( '', ( 5.00000000000000, 2.88675134594813, 5.00000000000000 ) );
#388 = VECTOR( '', #431, 1000.00000000000 );
#389 = CARTESIAN_POINT( '', ( 5.00000000000000, 2.88675134594813, -5.00000000000000 ) );
#390 = CARTESIAN_POINT( '', ( 5.00000000000000, 2.88675134594813, -5.00000000000000 ) );
#391 = VECTOR( '', #432, 1000.00000000000 );
#392 = CARTESIAN_POINT( '', ( 5.00000000000000, -2.88675134594813, -5.00000000000000 ) );
#393 = VECTOR( '', #433, 1000.00000000000 );
#394 = COLOUR_RGB( '', 0.689999997600000, 0.689999997600000, 0.689999997600000 );
#395 = CARTESIAN_POINT( '', ( 0.000000000000000, 2.88675134594813, 5.00000000000000 ) );
#396 = VECTOR( '', #434, 1000.00000000000 );
#397 = COLOUR_RGB( '', 0.689999997600000, 0.689999997600000, 0.689999997600000 );
#398 = COLOUR_RGB( '', 0.689999997600000, 0.689999997600000, 0.689999997600000 );
#399 = CARTESIAN_POINT( '', ( 0.000000000000000, 2.88675134594813, -5.00000000000000 ) );
#400 = CARTESIAN_POINT( '', ( 0.000000000000000, -2.88675134594813, -5.00000000000000 ) );
#401 = VECTOR( '', #435, 1000.00000000000 );
#402 = CARTESIAN_POINT( '', ( 0.000000000000000, 2.88675134594813, -5.00000000000000 ) );
#403 = VECTOR( '', #436, 1000.00000000000 );
#404 = COLOUR_RGB( '', 0.689999997600000, 0.689999997600000, 0.689999997600000 );
#405 = CARTESIAN_POINT( '', ( 5.00000000000000, 2.88675134594813, -5.00000000000000 ) );
#406 = VECTOR( '', #437, 1000.00000000000 );
#407 = COLOUR_RGB( '', 0.689999997600000, 0.689999997600000, 0.689999997600000 );
#408 = DIRECTION( '', ( 0.000000000000000, -0.500000000000000, 0.866025403784439 ) );
#409 = DIRECTION( '', ( -1.00000000000000, -0.000000000000000, -0.000000000000000 ) );
#410 = DIRECTION( '', ( 0.000000000000000, -0.500000000000000, 0.866025403784439 ) );
#411 = DIRECTION( '', ( -1.00000000000000, -0.000000000000000, -0.000000000000000 ) );
#412 = CARTESIAN_POINT( '', ( 0.499753280182865, 0.000000000000000, 0.000000000000000 ) );
#413 = DIRECTION( '', ( 1.00000000000000, 0.000000000000000, -0.000000000000000 ) );
#414 = DIRECTION( '', ( -0.000000000000000, 0.000000000000000, -1.00000000000000 ) );
#415 = CARTESIAN_POINT( '', ( 0.000000000000000, 0.000000000000000, 0.000000000000000 ) );
#416 = DIRECTION( '', ( 1.00000000000000, 0.000000000000000, -0.000000000000000 ) );
#417 = DIRECTION( '', ( -0.000000000000000, 0.000000000000000, -1.00000000000000 ) );
#418 = CARTESIAN_POINT( '', ( 10.0000000000000, 0.000000000000000, 0.000000000000000 ) );
#419 = DIRECTION( '', ( 1.00000000000000, 0.000000000000000, -0.000000000000000 ) );
#420 = DIRECTION( '', ( -0.000000000000000, 0.000000000000000, -1.00000000000000 ) );
#421 = CARTESIAN_POINT( '', ( 9.50024671981713, 0.000000000000000, 0.000000000000000 ) );
#422 = DIRECTION( '', ( 1.00000000000000, 0.000000000000000, -0.000000000000000 ) );
#423 = DIRECTION( '', ( -0.000000000000000, 0.000000000000000, -1.00000000000000 ) );
#424 = DIRECTION( '', ( 0.000000000000000, -0.500000000000000, -0.866025403784439 ) );
#425 = DIRECTION( '', ( -1.00000000000000, -0.000000000000000, -0.000000000000000 ) );
#426 = DIRECTION( '', ( 0.000000000000000, -0.500000000000000, -0.866025403784439 ) );
#427 = DIRECTION( '', ( -1.00000000000000, -0.000000000000000, -0.000000000000000 ) );
#428 = DIRECTION( '', ( 0.000000000000000, 0.500000000000000, -0.866025403784439 ) );
#429 = DIRECTION( '', ( 0.000000000000000, 0.500000000000000, -0.866025403784439 ) );
#430 = DIRECTION( '', ( -1.00000000000000, -0.000000000000000, -0.000000000000000 ) );
#431 = DIRECTION( '', ( 0.000000000000000, -1.00000000000000, 0.000000000000000 ) );
#432 = DIRECTION( '', ( 0.000000000000000, 0.500000000000000, 0.866025403784439 ) );
#433 = DIRECTION( '', ( 0.000000000000000, 1.00000000000000, 0.000000000000000 ) );
#434 = DIRECTION( '', ( 0.000000000000000, -1.00000000000000, 0.000000000000000 ) );
#435 = DIRECTION( '', ( 0.000000000000000, 1.00000000000000, 0.000000000000000 ) );
#436 = DIRECTION( '', ( 0.000000000000000, 0.500000000000000, 0.866025403784439 ) );
#437 = DIRECTION( '', ( -1.00000000000000, -0.000000000000000, -0.000000000000000 ) );
ENDSEC;
END-ISO-10303-21;
