ISO-10303-21;
HEADER;
FILE_DESCRIPTION( ( 'STEP AP214' ), '1' );
FILE_NAME( '//goodhand-server/Shared Folders/GoodHand Data/Kipp CAD/K0314/K0314.08__0_.stp', '2020-12-02T10:41:48', ( '' ), ( '' ), ' ', 'PARTsolutions', ' ' );
FILE_SCHEMA( ( 'AUTOMOTIVE_DESIGN { 1 0 10303 214 1 1 1 1 }' ) );
ENDSEC;
DATA;
#1 = MECHANICAL_DESIGN_GEOMETRIC_PRESENTATION_REPRESENTATION( ' ', ( #10, #11, #12, #13, #14, #15, #16, #17, #18, #19, #20 ), #6 );
#2 = PRODUCT_DEFINITION_CONTEXT( '', #21, 'design' );
#3 = APPLICATION_PROTOCOL_DEFINITION( 'international standard', 'automotive_design', 2001, #21 );
#4 = PRODUCT_CATEGORY_RELATIONSHIP( 'NONE', 'NONE', #22, #23 );
#5 = SHAPE_DEFINITION_REPRESENTATION( #24, #25 );
#6 =  ( GEOMETRIC_REPRESENTATION_CONTEXT( 3 )GLOBAL_UNCERTAINTY_ASSIGNED_CONTEXT( ( #28 ) )GLOBAL_UNIT_ASSIGNED_CONTEXT( ( #30, #31, #32 ) )REPRESENTATION_CONTEXT( 'NONE', 'WORKSPACE' ) );
#10 = STYLED_ITEM( '', ( #34 ), #35 );
#11 = STYLED_ITEM( '', ( #36 ), #37 );
#12 = STYLED_ITEM( '', ( #38 ), #39 );
#13 = STYLED_ITEM( '', ( #40 ), #41 );
#14 = STYLED_ITEM( '', ( #42 ), #43 );
#15 = STYLED_ITEM( '', ( #44 ), #45 );
#16 = STYLED_ITEM( '', ( #46 ), #47 );
#17 = STYLED_ITEM( '', ( #48 ), #49 );
#18 = STYLED_ITEM( '', ( #50 ), #51 );
#19 = STYLED_ITEM( '', ( #52 ), #53 );
#20 = STYLED_ITEM( '', ( #54 ), #55 );
#21 = APPLICATION_CONTEXT( 'core data for automotive mechanical design processes' );
#22 = PRODUCT_CATEGORY( 'part', 'NONE' );
#23 = PRODUCT_RELATED_PRODUCT_CATEGORY( 'detail', ' ', ( #56 ) );
#24 = PRODUCT_DEFINITION_SHAPE( 'NONE', 'NONE', #57 );
#25 = ADVANCED_BREP_SHAPE_REPRESENTATION( '_K0314.08_(0)', ( #58, #59 ), #6 );
#28 = UNCERTAINTY_MEASURE_WITH_UNIT( LENGTH_MEASURE( 0.00100000000000000 ), #30, '', '' );
#30 =  ( CONVERSION_BASED_UNIT( 'MILLIMETRE', #62 )LENGTH_UNIT(  )NAMED_UNIT( #65 ) );
#31 =  ( NAMED_UNIT( #67 )PLANE_ANGLE_UNIT(  )SI_UNIT( $, .RADIAN. ) );
#32 =  ( NAMED_UNIT( #67 )SI_UNIT( $, .STERADIAN. )SOLID_ANGLE_UNIT(  ) );
#34 = PRESENTATION_STYLE_ASSIGNMENT( ( #73 ) );
#35 = ADVANCED_FACE( '', ( #74, #75 ), #76, .F. );
#36 = PRESENTATION_STYLE_ASSIGNMENT( ( #77 ) );
#37 = ADVANCED_FACE( '', ( #78 ), #79, .T. );
#38 = PRESENTATION_STYLE_ASSIGNMENT( ( #80 ) );
#39 = ADVANCED_FACE( '', ( #81, #82 ), #83, .T. );
#40 = PRESENTATION_STYLE_ASSIGNMENT( ( #84 ) );
#41 = ADVANCED_FACE( '', ( #85 ), #86, .T. );
#42 = PRESENTATION_STYLE_ASSIGNMENT( ( #87 ) );
#43 = ADVANCED_FACE( '', ( #88 ), #89, .T. );
#44 = PRESENTATION_STYLE_ASSIGNMENT( ( #90 ) );
#45 = ADVANCED_FACE( '', ( #91, #92 ), #93, .T. );
#46 = PRESENTATION_STYLE_ASSIGNMENT( ( #94 ) );
#47 = ADVANCED_FACE( '', ( #95, #96 ), #97, .T. );
#48 = PRESENTATION_STYLE_ASSIGNMENT( ( #98 ) );
#49 = ADVANCED_FACE( '', ( #99 ), #100, .F. );
#50 = PRESENTATION_STYLE_ASSIGNMENT( ( #101 ) );
#51 = ADVANCED_FACE( '', ( #102 ), #103, .T. );
#52 = PRESENTATION_STYLE_ASSIGNMENT( ( #104 ) );
#53 = ADVANCED_FACE( '', ( #105 ), #106, .F. );
#54 = PRESENTATION_STYLE_ASSIGNMENT( ( #107 ) );
#55 = ADVANCED_FACE( '', ( #108 ), #109, .T. );
#56 = PRODUCT( '_K0314.08_(0)', '_K0314.08_(0)', 'PART-_K0314.08_(0)-DESC', ( #110 ) );
#57 = PRODUCT_DEFINITION( 'NONE', 'NONE', #111, #2 );
#58 = MANIFOLD_SOLID_BREP( '_K0314.08_(0)', #112 );
#59 = AXIS2_PLACEMENT_3D( '', #113, #114, #115 );
#62 = LENGTH_MEASURE_WITH_UNIT( LENGTH_MEASURE( 1.00000000000000 ), #116 );
#65 = DIMENSIONAL_EXPONENTS( 1.00000000000000, 0.000000000000000, 0.000000000000000, 0.000000000000000, 0.000000000000000, 0.000000000000000, 0.000000000000000 );
#67 = DIMENSIONAL_EXPONENTS( 0.000000000000000, 0.000000000000000, 0.000000000000000, 0.000000000000000, 0.000000000000000, 0.000000000000000, 0.000000000000000 );
#73 = SURFACE_STYLE_USAGE( .BOTH., #117 );
#74 = FACE_OUTER_BOUND( '', #118, .T. );
#75 = FACE_BOUND( '', #119, .T. );
#76 = PLANE( '', #120 );
#77 = SURFACE_STYLE_USAGE( .BOTH., #121 );
#78 = FACE_OUTER_BOUND( '', #122, .T. );
#79 = PLANE( '', #123 );
#80 = SURFACE_STYLE_USAGE( .BOTH., #124 );
#81 = FACE_OUTER_BOUND( '', #125, .T. );
#82 = FACE_BOUND( '', #126, .T. );
#83 = CONICAL_SURFACE( '', #127, 3.23300000000000, 0.785398163400000 );
#84 = SURFACE_STYLE_USAGE( .BOTH., #128 );
#85 = FACE_OUTER_BOUND( '', #129, .T. );
#86 = PLANE( '', #130 );
#87 = SURFACE_STYLE_USAGE( .BOTH., #131 );
#88 = FACE_OUTER_BOUND( '', #132, .T. );
#89 = CONICAL_SURFACE( '', #133, 4.00000000000000, 0.785398163400000 );
#90 = SURFACE_STYLE_USAGE( .BOTH., #134 );
#91 = FACE_BOUND( '', #135, .T. );
#92 = FACE_OUTER_BOUND( '', #136, .T. );
#93 = SPHERICAL_SURFACE( '', #137, 2.00000000000000 );
#94 = SURFACE_STYLE_USAGE( .BOTH., #138 );
#95 = FACE_OUTER_BOUND( '', #139, .T. );
#96 = FACE_OUTER_BOUND( '', #140, .T. );
#97 = CYLINDRICAL_SURFACE( '', #141, 4.00000000000000 );
#98 = SURFACE_STYLE_USAGE( .BOTH., #142 );
#99 = FACE_OUTER_BOUND( '', #143, .T. );
#100 = PLANE( '', #144 );
#101 = SURFACE_STYLE_USAGE( .BOTH., #145 );
#102 = FACE_OUTER_BOUND( '', #146, .T. );
#103 = PLANE( '', #147 );
#104 = SURFACE_STYLE_USAGE( .BOTH., #148 );
#105 = FACE_OUTER_BOUND( '', #149, .T. );
#106 = PLANE( '', #150 );
#107 = SURFACE_STYLE_USAGE( .BOTH., #151 );
#108 = FACE_OUTER_BOUND( '', #152, .T. );
#109 = CONICAL_SURFACE( '', #153, 4.00000000000000, 0.785398163400000 );
#110 = PRODUCT_CONTEXT( '', #21, 'mechanical' );
#111 = PRODUCT_DEFINITION_FORMATION_WITH_SPECIFIED_SOURCE( ' ', 'NONE', #56, .NOT_KNOWN. );
#112 = CLOSED_SHELL( '', ( #51, #37, #45, #53, #49, #43, #47, #55, #39, #35, #41 ) );
#113 = CARTESIAN_POINT( '', ( 0.000000000000000, 0.000000000000000, 0.000000000000000 ) );
#114 = DIRECTION( '', ( 0.000000000000000, 0.000000000000000, 1.00000000000000 ) );
#115 = DIRECTION( '', ( 1.00000000000000, 0.000000000000000, 0.000000000000000 ) );
#116 =  ( LENGTH_UNIT(  )NAMED_UNIT( #65 )SI_UNIT( .MILLI., .METRE. ) );
#117 = SURFACE_SIDE_STYLE( '', ( #155 ) );
#118 = EDGE_LOOP( '', ( #156 ) );
#119 = EDGE_LOOP( '', ( #157 ) );
#120 = AXIS2_PLACEMENT_3D( '', #158, #159, #160 );
#121 = SURFACE_SIDE_STYLE( '', ( #161 ) );
#122 = EDGE_LOOP( '', ( #162, #163, #164, #165 ) );
#123 = AXIS2_PLACEMENT_3D( '', #166, #167, #168 );
#124 = SURFACE_SIDE_STYLE( '', ( #169 ) );
#125 = EDGE_LOOP( '', ( #170 ) );
#126 = EDGE_LOOP( '', ( #171 ) );
#127 = AXIS2_PLACEMENT_3D( '', #172, #173, #174 );
#128 = SURFACE_SIDE_STYLE( '', ( #175 ) );
#129 = EDGE_LOOP( '', ( #176, #177, #178, #179, #180, #181 ) );
#130 = AXIS2_PLACEMENT_3D( '', #182, #183, #184 );
#131 = SURFACE_SIDE_STYLE( '', ( #185 ) );
#132 = EDGE_LOOP( '', ( #186, #187, #188, #189 ) );
#133 = AXIS2_PLACEMENT_3D( '', #190, #191, #192 );
#134 = SURFACE_SIDE_STYLE( '', ( #193 ) );
#135 = VERTEX_LOOP( '', #194 );
#136 = EDGE_LOOP( '', ( #195 ) );
#137 = AXIS2_PLACEMENT_3D( '', #196, #197, #198 );
#138 = SURFACE_SIDE_STYLE( '', ( #199 ) );
#139 = EDGE_LOOP( '', ( #200, #201, #202, #203, #204, #205, #206, #207 ) );
#140 = EDGE_LOOP( '', ( #208 ) );
#141 = AXIS2_PLACEMENT_3D( '', #209, #210, #211 );
#142 = SURFACE_SIDE_STYLE( '', ( #212 ) );
#143 = EDGE_LOOP( '', ( #213, #214 ) );
#144 = AXIS2_PLACEMENT_3D( '', #215, #216, #217 );
#145 = SURFACE_SIDE_STYLE( '', ( #218 ) );
#146 = EDGE_LOOP( '', ( #219, #220, #221, #222, #223, #224 ) );
#147 = AXIS2_PLACEMENT_3D( '', #225, #226, #227 );
#148 = SURFACE_SIDE_STYLE( '', ( #228 ) );
#149 = EDGE_LOOP( '', ( #229, #230 ) );
#150 = AXIS2_PLACEMENT_3D( '', #231, #232, #233 );
#151 = SURFACE_SIDE_STYLE( '', ( #234 ) );
#152 = EDGE_LOOP( '', ( #235, #236, #237, #238 ) );
#153 = AXIS2_PLACEMENT_3D( '', #239, #240, #241 );
#155 = SURFACE_STYLE_FILL_AREA( #242 );
#156 = ORIENTED_EDGE( '', *, *, #243, .F. );
#157 = ORIENTED_EDGE( '', *, *, #244, .T. );
#158 = CARTESIAN_POINT( '', ( 0.000000000000000, 16.0000000000000, 0.000000000000000 ) );
#159 = DIRECTION( '', ( 0.000000000000000, -1.00000000000000, -0.000000000000000 ) );
#160 = DIRECTION( '', ( 0.000000000000000, 0.000000000000000, -1.00000000000000 ) );
#161 = SURFACE_STYLE_FILL_AREA( #245 );
#162 = ORIENTED_EDGE( '', *, *, #246, .T. );
#163 = ORIENTED_EDGE( '', *, *, #247, .T. );
#164 = ORIENTED_EDGE( '', *, *, #248, .T. );
#165 = ORIENTED_EDGE( '', *, *, #249, .F. );
#166 = CARTESIAN_POINT( '', ( 0.600000000000000, 1.21000000000000, 8.00000000000000 ) );
#167 = DIRECTION( '', ( 0.000000000000000, -1.00000000000000, 0.000000000000000 ) );
#168 = DIRECTION( '', ( 0.000000000000000, 0.000000000000000, -1.00000000000000 ) );
#169 = SURFACE_STYLE_FILL_AREA( #250 );
#170 = ORIENTED_EDGE( '', *, *, #251, .F. );
#171 = ORIENTED_EDGE( '', *, *, #243, .T. );
#172 = CARTESIAN_POINT( '', ( 0.000000000000000, 16.0000000000000, 0.000000000000000 ) );
#173 = DIRECTION( '', ( -0.000000000000000, -1.00000000000000, -0.000000000000000 ) );
#174 = DIRECTION( '', ( 0.000000000000000, 0.000000000000000, -1.00000000000000 ) );
#175 = SURFACE_STYLE_FILL_AREA( #252 );
#176 = ORIENTED_EDGE( '', *, *, #253, .T. );
#177 = ORIENTED_EDGE( '', *, *, #254, .T. );
#178 = ORIENTED_EDGE( '', *, *, #255, .T. );
#179 = ORIENTED_EDGE( '', *, *, #256, .T. );
#180 = ORIENTED_EDGE( '', *, *, #257, .T. );
#181 = ORIENTED_EDGE( '', *, *, #249, .T. );
#182 = CARTESIAN_POINT( '', ( 0.600000000000000, 0.000000000000000, 8.00000000000000 ) );
#183 = DIRECTION( '', ( -1.00000000000000, 0.000000000000000, 0.000000000000000 ) );
#184 = DIRECTION( '', ( 0.000000000000000, 0.000000000000000, 1.00000000000000 ) );
#185 = SURFACE_STYLE_FILL_AREA( #258 );
#186 = ORIENTED_EDGE( '', *, *, #256, .F. );
#187 = ORIENTED_EDGE( '', *, *, #259, .F. );
#188 = ORIENTED_EDGE( '', *, *, #254, .F. );
#189 = ORIENTED_EDGE( '', *, *, #260, .T. );
#190 = CARTESIAN_POINT( '', ( 0.000000000000000, 0.767000000000002, 0.000000000000000 ) );
#191 = DIRECTION( '', ( -0.000000000000000, 1.00000000000000, 0.000000000000000 ) );
#192 = DIRECTION( '', ( 0.000000000000000, -0.000000000000000, 1.00000000000000 ) );
#193 = SURFACE_STYLE_FILL_AREA( #261 );
#194 = VERTEX_POINT( '', #262 );
#195 = ORIENTED_EDGE( '', *, *, #244, .F. );
#196 = CARTESIAN_POINT( '', ( 1.73472347597681E-15, 16.0000000000000, 0.000000000000000 ) );
#197 = DIRECTION( '', ( 0.000000000000000, -1.00000000000000, 0.000000000000000 ) );
#198 = DIRECTION( '', ( 1.00000000000000, 0.000000000000000, 0.000000000000000 ) );
#199 = SURFACE_STYLE_FILL_AREA( #263 );
#200 = ORIENTED_EDGE( '', *, *, #260, .F. );
#201 = ORIENTED_EDGE( '', *, *, #253, .F. );
#202 = ORIENTED_EDGE( '', *, *, #248, .F. );
#203 = ORIENTED_EDGE( '', *, *, #264, .F. );
#204 = ORIENTED_EDGE( '', *, *, #265, .F. );
#205 = ORIENTED_EDGE( '', *, *, #266, .F. );
#206 = ORIENTED_EDGE( '', *, *, #246, .F. );
#207 = ORIENTED_EDGE( '', *, *, #257, .F. );
#208 = ORIENTED_EDGE( '', *, *, #251, .T. );
#209 = CARTESIAN_POINT( '', ( 0.000000000000000, 0.000000000000000, 0.000000000000000 ) );
#210 = DIRECTION( '', ( -0.000000000000000, 1.00000000000000, 0.000000000000000 ) );
#211 = DIRECTION( '', ( 0.000000000000000, 0.000000000000000, -1.00000000000000 ) );
#212 = SURFACE_STYLE_FILL_AREA( #267 );
#213 = ORIENTED_EDGE( '', *, *, #255, .F. );
#214 = ORIENTED_EDGE( '', *, *, #259, .T. );
#215 = CARTESIAN_POINT( '', ( 3.23300000000000, 5.42101086242752E-17, 0.000000000000000 ) );
#216 = DIRECTION( '', ( 0.000000000000000, 1.00000000000000, 0.000000000000000 ) );
#217 = DIRECTION( '', ( 0.000000000000000, -0.000000000000000, 1.00000000000000 ) );
#218 = SURFACE_STYLE_FILL_AREA( #268 );
#219 = ORIENTED_EDGE( '', *, *, #266, .T. );
#220 = ORIENTED_EDGE( '', *, *, #269, .T. );
#221 = ORIENTED_EDGE( '', *, *, #270, .T. );
#222 = ORIENTED_EDGE( '', *, *, #271, .T. );
#223 = ORIENTED_EDGE( '', *, *, #264, .T. );
#224 = ORIENTED_EDGE( '', *, *, #247, .F. );
#225 = CARTESIAN_POINT( '', ( -0.600000000000000, 1.21000000000000, 8.00000000000000 ) );
#226 = DIRECTION( '', ( 1.00000000000000, 0.000000000000000, -0.000000000000000 ) );
#227 = DIRECTION( '', ( -0.000000000000000, 0.000000000000000, -1.00000000000000 ) );
#228 = SURFACE_STYLE_FILL_AREA( #272 );
#229 = ORIENTED_EDGE( '', *, *, #270, .F. );
#230 = ORIENTED_EDGE( '', *, *, #273, .T. );
#231 = CARTESIAN_POINT( '', ( 3.23300000000000, 5.42101086242752E-17, 0.000000000000000 ) );
#232 = DIRECTION( '', ( 0.000000000000000, 1.00000000000000, 0.000000000000000 ) );
#233 = DIRECTION( '', ( 0.000000000000000, -0.000000000000000, 1.00000000000000 ) );
#234 = SURFACE_STYLE_FILL_AREA( #274 );
#235 = ORIENTED_EDGE( '', *, *, #269, .F. );
#236 = ORIENTED_EDGE( '', *, *, #265, .T. );
#237 = ORIENTED_EDGE( '', *, *, #271, .F. );
#238 = ORIENTED_EDGE( '', *, *, #273, .F. );
#239 = CARTESIAN_POINT( '', ( 0.000000000000000, 0.767000000000002, 0.000000000000000 ) );
#240 = DIRECTION( '', ( -0.000000000000000, 1.00000000000000, 0.000000000000000 ) );
#241 = DIRECTION( '', ( 0.000000000000000, -0.000000000000000, 1.00000000000000 ) );
#242 = FILL_AREA_STYLE( '', ( #275 ) );
#243 = EDGE_CURVE( '', #276, #276, #277, .T. );
#244 = EDGE_CURVE( '', #278, #278, #279, .T. );
#245 = FILL_AREA_STYLE( '', ( #280 ) );
#246 = EDGE_CURVE( '', #281, #282, #283, .T. );
#247 = EDGE_CURVE( '', #282, #284, #285, .T. );
#248 = EDGE_CURVE( '', #284, #286, #287, .T. );
#249 = EDGE_CURVE( '', #281, #286, #288, .T. );
#250 = FILL_AREA_STYLE( '', ( #289 ) );
#251 = EDGE_CURVE( '', #290, #290, #291, .T. );
#252 = FILL_AREA_STYLE( '', ( #292 ) );
#253 = EDGE_CURVE( '', #286, #293, #294, .T. );
#254 = EDGE_CURVE( '', #293, #295, #296, .T. );
#255 = EDGE_CURVE( '', #295, #297, #298, .T. );
#256 = EDGE_CURVE( '', #297, #299, #300, .T. );
#257 = EDGE_CURVE( '', #299, #281, #301, .F. );
#258 = FILL_AREA_STYLE( '', ( #302 ) );
#259 = EDGE_CURVE( '', #295, #297, #303, .T. );
#260 = EDGE_CURVE( '', #293, #299, #304, .T. );
#261 = FILL_AREA_STYLE( '', ( #305 ) );
#262 = CARTESIAN_POINT( '', ( 1.85718815589154E-15, 18.0000000000000, 0.000000000000000 ) );
#263 = FILL_AREA_STYLE( '', ( #306 ) );
#264 = EDGE_CURVE( '', #307, #284, #308, .F. );
#265 = EDGE_CURVE( '', #309, #307, #310, .T. );
#266 = EDGE_CURVE( '', #282, #309, #311, .T. );
#267 = FILL_AREA_STYLE( '', ( #312 ) );
#268 = FILL_AREA_STYLE( '', ( #313 ) );
#269 = EDGE_CURVE( '', #309, #314, #315, .T. );
#270 = EDGE_CURVE( '', #314, #316, #317, .T. );
#271 = EDGE_CURVE( '', #316, #307, #318, .T. );
#272 = FILL_AREA_STYLE( '', ( #319 ) );
#273 = EDGE_CURVE( '', #314, #316, #320, .T. );
#274 = FILL_AREA_STYLE( '', ( #321 ) );
#275 = FILL_AREA_STYLE_COLOUR( '', #322 );
#276 = VERTEX_POINT( '', #323 );
#277 = CIRCLE( '', #324, 3.23300000000000 );
#278 = VERTEX_POINT( '', #325 );
#279 = CIRCLE( '', #326, 2.00000000000000 );
#280 = FILL_AREA_STYLE_COLOUR( '', #327 );
#281 = VERTEX_POINT( '', #328 );
#282 = VERTEX_POINT( '', #329 );
#283 = CIRCLE( '', #330, 4.00000000000000 );
#284 = VERTEX_POINT( '', #331 );
#285 = LINE( '', #332, #333 );
#286 = VERTEX_POINT( '', #334 );
#287 = CIRCLE( '', #335, 4.00000000000000 );
#288 = LINE( '', #336, #337 );
#289 = FILL_AREA_STYLE_COLOUR( '', #338 );
#290 = VERTEX_POINT( '', #339 );
#291 = CIRCLE( '', #340, 4.00000000000000 );
#292 = FILL_AREA_STYLE_COLOUR( '', #341 );
#293 = VERTEX_POINT( '', #342 );
#294 = LINE( '', #343, #344 );
#295 = VERTEX_POINT( '', #345 );
#296 = B_SPLINE_CURVE_WITH_KNOTS( '', 3, ( #346, #347, #348, #349 ), .UNSPECIFIED., .F., .F., ( 4, 4 ), ( 0.00683715380202207, 0.00792959567854053 ), .UNSPECIFIED. );
#297 = VERTEX_POINT( '', #350 );
#298 = LINE( '', #351, #352 );
#299 = VERTEX_POINT( '', #353 );
#300 = B_SPLINE_CURVE_WITH_KNOTS( '', 3, ( #354, #355, #356, #357 ), .UNSPECIFIED., .F., .F., ( 4, 4 ), ( 0.0163074210434666, 0.0174091651562161 ), .UNSPECIFIED. );
#301 = LINE( '', #358, #359 );
#302 = FILL_AREA_STYLE_COLOUR( '', #360 );
#303 = CIRCLE( '', #361, 3.23300000000000 );
#304 = CIRCLE( '', #362, 4.00000000000000 );
#305 = FILL_AREA_STYLE_COLOUR( '', #363 );
#306 = FILL_AREA_STYLE_COLOUR( '', #364 );
#307 = VERTEX_POINT( '', #365 );
#308 = LINE( '', #366, #367 );
#309 = VERTEX_POINT( '', #368 );
#310 = CIRCLE( '', #369, 4.00000000000000 );
#311 = LINE( '', #370, #371 );
#312 = FILL_AREA_STYLE_COLOUR( '', #372 );
#313 = FILL_AREA_STYLE_COLOUR( '', #373 );
#314 = VERTEX_POINT( '', #374 );
#315 = B_SPLINE_CURVE_WITH_KNOTS( '', 3, ( #375, #376, #377, #378 ), .UNSPECIFIED., .F., .F., ( 4, 4 ), ( 0.00683715380202207, 0.00792959567854053 ), .UNSPECIFIED. );
#316 = VERTEX_POINT( '', #379 );
#317 = LINE( '', #380, #381 );
#318 = B_SPLINE_CURVE_WITH_KNOTS( '', 3, ( #382, #383, #384, #385 ), .UNSPECIFIED., .F., .F., ( 4, 4 ), ( 0.0163074210434666, 0.0174091651562161 ), .UNSPECIFIED. );
#319 = FILL_AREA_STYLE_COLOUR( '', #386 );
#320 = CIRCLE( '', #387, 3.23300000000000 );
#321 = FILL_AREA_STYLE_COLOUR( '', #388 );
#322 = COLOUR_RGB( '', 0.689999997600000, 0.689999997600000, 0.689999997600000 );
#323 = CARTESIAN_POINT( '', ( 0.000000000000000, 16.0000000000000, -3.23300000000000 ) );
#324 = AXIS2_PLACEMENT_3D( '', #389, #390, #391 );
#325 = CARTESIAN_POINT( '', ( 0.000000000000000, 16.0000000000000, -2.00000000000000 ) );
#326 = AXIS2_PLACEMENT_3D( '', #392, #393, #394 );
#327 = COLOUR_RGB( '', 0.689999997600000, 0.689999997600000, 0.689999997600000 );
#328 = CARTESIAN_POINT( '', ( 0.600000000000000, 1.21000000000000, 3.95474398665704 ) );
#329 = CARTESIAN_POINT( '', ( -0.600000000000000, 1.21000000000000, 3.95474398665704 ) );
#330 = AXIS2_PLACEMENT_3D( '', #395, #396, #397 );
#331 = CARTESIAN_POINT( '', ( -0.600000000000000, 1.21000000000000, -3.95474398665704 ) );
#332 = CARTESIAN_POINT( '', ( -0.600000000000000, 1.21000000000000, 8.00000000000000 ) );
#333 = VECTOR( '', #398, 1000.00000000000 );
#334 = CARTESIAN_POINT( '', ( 0.600000000000000, 1.21000000000000, -3.95474398665704 ) );
#335 = AXIS2_PLACEMENT_3D( '', #399, #400, #401 );
#336 = CARTESIAN_POINT( '', ( 0.600000000000000, 1.21000000000000, 8.00000000000000 ) );
#337 = VECTOR( '', #402, 1000.00000000000 );
#338 = COLOUR_RGB( '', 0.689999997600000, 0.689999997600000, 0.689999997600000 );
#339 = CARTESIAN_POINT( '', ( 0.000000000000000, 15.2330000000000, -4.00000000000000 ) );
#340 = AXIS2_PLACEMENT_3D( '', #403, #404, #405 );
#341 = COLOUR_RGB( '', 0.689999997600000, 0.689999997600000, 0.689999997600000 );
#342 = CARTESIAN_POINT( '', ( 0.600000000000000, 0.767000000000002, -3.95474398665704 ) );
#343 = CARTESIAN_POINT( '', ( 0.600000000000000, 0.000000000000000, -3.95474398665704 ) );
#344 = VECTOR( '', #406, 1000.00000000000 );
#345 = CARTESIAN_POINT( '', ( 0.600000000000000, 0.000000000000000, -3.17683631935925 ) );
#346 = CARTESIAN_POINT( '', ( 0.600000000000000, 0.767000000000001, -3.95474398665704 ) );
#347 = CARTESIAN_POINT( '', ( 0.600000000000000, 0.510977881797218, -3.69579208578398 ) );
#348 = CARTESIAN_POINT( '', ( 0.600000000000000, 0.255225552914508, -3.43657403626472 ) );
#349 = CARTESIAN_POINT( '', ( 0.600000000000000, -2.40128554862480E-14, -3.17683631935927 ) );
#350 = CARTESIAN_POINT( '', ( 0.600000000000000, 0.000000000000000, 3.17683631935925 ) );
#351 = CARTESIAN_POINT( '', ( 0.600000000000000, 5.42101086242752E-17, 0.000000000000000 ) );
#352 = VECTOR( '', #407, 1000.00000000000 );
#353 = CARTESIAN_POINT( '', ( 0.600000000000000, 0.767000000000002, 3.95474398665704 ) );
#354 = CARTESIAN_POINT( '', ( 0.600000000000000, 6.75435951229657E-16, 3.17683631935925 ) );
#355 = CARTESIAN_POINT( '', ( 0.600000000000000, 0.255226606218724, 3.43657510819038 ) );
#356 = CARTESIAN_POINT( '', ( 0.600000000000000, 0.510978733197337, 3.69579294692708 ) );
#357 = CARTESIAN_POINT( '', ( 0.600000000000000, 0.767000000000001, 3.95474398665704 ) );
#358 = CARTESIAN_POINT( '', ( 0.600000000000000, 0.000000000000000, 3.95474398665704 ) );
#359 = VECTOR( '', #408, 1000.00000000000 );
#360 = COLOUR_RGB( '', 0.689999997600000, 0.689999997600000, 0.689999997600000 );
#361 = AXIS2_PLACEMENT_3D( '', #409, #410, #411 );
#362 = AXIS2_PLACEMENT_3D( '', #412, #413, #414 );
#363 = COLOUR_RGB( '', 0.689999997600000, 0.689999997600000, 0.689999997600000 );
#364 = COLOUR_RGB( '', 0.689999997600000, 0.689999997600000, 0.689999997600000 );
#365 = CARTESIAN_POINT( '', ( -0.600000000000000, 0.767000000000002, -3.95474398665704 ) );
#366 = CARTESIAN_POINT( '', ( -0.600000000000000, 0.000000000000000, -3.95474398665704 ) );
#367 = VECTOR( '', #415, 1000.00000000000 );
#368 = CARTESIAN_POINT( '', ( -0.600000000000000, 0.767000000000002, 3.95474398665704 ) );
#369 = AXIS2_PLACEMENT_3D( '', #416, #417, #418 );
#370 = CARTESIAN_POINT( '', ( -0.600000000000000, 0.000000000000000, 3.95474398665704 ) );
#371 = VECTOR( '', #419, 1000.00000000000 );
#372 = COLOUR_RGB( '', 0.689999997600000, 0.689999997600000, 0.689999997600000 );
#373 = COLOUR_RGB( '', 0.689999997600000, 0.689999997600000, 0.689999997600000 );
#374 = CARTESIAN_POINT( '', ( -0.600000000000000, 2.16840434497101E-16, 3.17683631935925 ) );
#375 = CARTESIAN_POINT( '', ( -0.600000000000000, 0.767000000000003, 3.95474398665704 ) );
#376 = CARTESIAN_POINT( '', ( -0.600000000000000, 0.510977881797220, 3.69579208578398 ) );
#377 = CARTESIAN_POINT( '', ( -0.600000000000000, 0.255225552914509, 3.43657403626472 ) );
#378 = CARTESIAN_POINT( '', ( -0.600000000000000, -2.31059731265433E-14, 3.17683631935927 ) );
#379 = CARTESIAN_POINT( '', ( -0.600000000000000, 2.16840434497101E-16, -3.17683631935925 ) );
#380 = CARTESIAN_POINT( '', ( -0.600000000000000, 5.42101086242752E-17, 0.000000000000000 ) );
#381 = VECTOR( '', #420, 1000.00000000000 );
#382 = CARTESIAN_POINT( '', ( -0.600000000000000, -2.98005813119156E-16, -3.17683631935925 ) );
#383 = CARTESIAN_POINT( '', ( -0.600000000000000, 0.255226606218724, -3.43657510819038 ) );
#384 = CARTESIAN_POINT( '', ( -0.600000000000000, 0.510978733197338, -3.69579294692708 ) );
#385 = CARTESIAN_POINT( '', ( -0.600000000000000, 0.767000000000002, -3.95474398665704 ) );
#386 = COLOUR_RGB( '', 0.689999997600000, 0.689999997600000, 0.689999997600000 );
#387 = AXIS2_PLACEMENT_3D( '', #421, #422, #423 );
#388 = COLOUR_RGB( '', 0.689999997600000, 0.689999997600000, 0.689999997600000 );
#389 = CARTESIAN_POINT( '', ( 0.000000000000000, 16.0000000000000, 0.000000000000000 ) );
#390 = DIRECTION( '', ( 0.000000000000000, -1.00000000000000, -0.000000000000000 ) );
#391 = DIRECTION( '', ( 0.000000000000000, 0.000000000000000, -1.00000000000000 ) );
#392 = CARTESIAN_POINT( '', ( 0.000000000000000, 16.0000000000000, 0.000000000000000 ) );
#393 = DIRECTION( '', ( 0.000000000000000, -1.00000000000000, -0.000000000000000 ) );
#394 = DIRECTION( '', ( 0.000000000000000, 0.000000000000000, -1.00000000000000 ) );
#395 = CARTESIAN_POINT( '', ( 0.000000000000000, 1.21000000000000, 0.000000000000000 ) );
#396 = DIRECTION( '', ( 0.000000000000000, -1.00000000000000, 0.000000000000000 ) );
#397 = DIRECTION( '', ( 0.000000000000000, 0.000000000000000, -1.00000000000000 ) );
#398 = DIRECTION( '', ( -0.000000000000000, -0.000000000000000, -1.00000000000000 ) );
#399 = CARTESIAN_POINT( '', ( 0.000000000000000, 1.21000000000000, 0.000000000000000 ) );
#400 = DIRECTION( '', ( 0.000000000000000, -1.00000000000000, 0.000000000000000 ) );
#401 = DIRECTION( '', ( 0.000000000000000, 0.000000000000000, -1.00000000000000 ) );
#402 = DIRECTION( '', ( -0.000000000000000, -0.000000000000000, -1.00000000000000 ) );
#403 = CARTESIAN_POINT( '', ( 0.000000000000000, 15.2330000000000, 0.000000000000000 ) );
#404 = DIRECTION( '', ( 0.000000000000000, -1.00000000000000, -0.000000000000000 ) );
#405 = DIRECTION( '', ( 0.000000000000000, 0.000000000000000, -1.00000000000000 ) );
#406 = DIRECTION( '', ( -0.000000000000000, -1.00000000000000, -0.000000000000000 ) );
#407 = DIRECTION( '', ( 0.000000000000000, -0.000000000000000, 1.00000000000000 ) );
#408 = DIRECTION( '', ( -0.000000000000000, -1.00000000000000, -0.000000000000000 ) );
#409 = CARTESIAN_POINT( '', ( 0.000000000000000, 1.08420217248550E-16, 0.000000000000000 ) );
#410 = DIRECTION( '', ( 0.000000000000000, -1.00000000000000, -0.000000000000000 ) );
#411 = DIRECTION( '', ( 0.000000000000000, 0.000000000000000, -1.00000000000000 ) );
#412 = CARTESIAN_POINT( '', ( 0.000000000000000, 0.767000000000002, 0.000000000000000 ) );
#413 = DIRECTION( '', ( 0.000000000000000, -1.00000000000000, -0.000000000000000 ) );
#414 = DIRECTION( '', ( 0.000000000000000, 0.000000000000000, -1.00000000000000 ) );
#415 = DIRECTION( '', ( -0.000000000000000, -1.00000000000000, -0.000000000000000 ) );
#416 = CARTESIAN_POINT( '', ( 0.000000000000000, 0.767000000000002, 0.000000000000000 ) );
#417 = DIRECTION( '', ( 0.000000000000000, -1.00000000000000, -0.000000000000000 ) );
#418 = DIRECTION( '', ( 0.000000000000000, 0.000000000000000, -1.00000000000000 ) );
#419 = DIRECTION( '', ( -0.000000000000000, -1.00000000000000, -0.000000000000000 ) );
#420 = DIRECTION( '', ( -0.000000000000000, 0.000000000000000, -1.00000000000000 ) );
#421 = CARTESIAN_POINT( '', ( 0.000000000000000, 1.08420217248550E-16, 0.000000000000000 ) );
#422 = DIRECTION( '', ( 0.000000000000000, -1.00000000000000, -0.000000000000000 ) );
#423 = DIRECTION( '', ( 0.000000000000000, 0.000000000000000, -1.00000000000000 ) );
ENDSEC;
END-ISO-10303-21;
