ISO-10303-21;
HEADER;
FILE_DESCRIPTION( ( 'STEP AP214' ), '1' );
FILE_NAME( '//goodhand-server/Shared Folders/GoodHand Data/Kipp CAD/K0391/K0391.10X55.stp', '2020-12-07T10:17:31', ( '' ), ( '' ), ' ', 'PARTsolutions', ' ' );
FILE_SCHEMA( ( 'AUTOMOTIVE_DESIGN { 1 0 10303 214 1 1 1 1 }' ) );
ENDSEC;
DATA;
#1 = MECHANICAL_DESIGN_GEOMETRIC_PRESENTATION_REPRESENTATION( ' ', ( #10, #11, #12, #13, #14, #15, #16, #17, #18, #19, #20, #21, #22 ), #6 );
#2 = PRODUCT_DEFINITION_CONTEXT( '', #23, 'design' );
#3 = APPLICATION_PROTOCOL_DEFINITION( 'international standard', 'automotive_design', 2001, #23 );
#4 = PRODUCT_CATEGORY_RELATIONSHIP( 'NONE', 'NONE', #24, #25 );
#5 = SHAPE_DEFINITION_REPRESENTATION( #26, #27 );
#6 =  ( GEOMETRIC_REPRESENTATION_CONTEXT( 3 )GLOBAL_UNCERTAINTY_ASSIGNED_CONTEXT( ( #30 ) )GLOBAL_UNIT_ASSIGNED_CONTEXT( ( #32, #33, #34 ) )REPRESENTATION_CONTEXT( 'NONE', 'WORKSPACE' ) );
#10 = STYLED_ITEM( '', ( #36 ), #37 );
#11 = STYLED_ITEM( '', ( #38 ), #39 );
#12 = STYLED_ITEM( '', ( #40 ), #41 );
#13 = STYLED_ITEM( '', ( #42 ), #43 );
#14 = STYLED_ITEM( '', ( #44 ), #45 );
#15 = STYLED_ITEM( '', ( #46 ), #47 );
#16 = STYLED_ITEM( '', ( #48 ), #49 );
#17 = STYLED_ITEM( '', ( #50 ), #51 );
#18 = STYLED_ITEM( '', ( #52 ), #53 );
#19 = STYLED_ITEM( '', ( #54 ), #55 );
#20 = STYLED_ITEM( '', ( #56 ), #57 );
#21 = STYLED_ITEM( '', ( #58 ), #59 );
#22 = STYLED_ITEM( '', ( #60 ), #61 );
#23 = APPLICATION_CONTEXT( 'core data for automotive mechanical design processes' );
#24 = PRODUCT_CATEGORY( 'part', 'NONE' );
#25 = PRODUCT_RELATED_PRODUCT_CATEGORY( 'detail', ' ', ( #62 ) );
#26 = PRODUCT_DEFINITION_SHAPE( 'NONE', 'NONE', #63 );
#27 = ADVANCED_BREP_SHAPE_REPRESENTATION( '_K0391.10X55', ( #64, #65 ), #6 );
#30 = UNCERTAINTY_MEASURE_WITH_UNIT( LENGTH_MEASURE( 0.00100000000000000 ), #32, '', '' );
#32 =  ( CONVERSION_BASED_UNIT( 'MILLIMETRE', #68 )LENGTH_UNIT(  )NAMED_UNIT( #71 ) );
#33 =  ( NAMED_UNIT( #73 )PLANE_ANGLE_UNIT(  )SI_UNIT( $, .RADIAN. ) );
#34 =  ( NAMED_UNIT( #73 )SI_UNIT( $, .STERADIAN. )SOLID_ANGLE_UNIT(  ) );
#36 = PRESENTATION_STYLE_ASSIGNMENT( ( #79 ) );
#37 = ADVANCED_FACE( '', ( #80, #81 ), #82, .F. );
#38 = PRESENTATION_STYLE_ASSIGNMENT( ( #83 ) );
#39 = ADVANCED_FACE( '', ( #84 ), #85, .T. );
#40 = PRESENTATION_STYLE_ASSIGNMENT( ( #86 ) );
#41 = ADVANCED_FACE( '', ( #87, #88 ), #89, .T. );
#42 = PRESENTATION_STYLE_ASSIGNMENT( ( #90 ) );
#43 = ADVANCED_FACE( '', ( #91 ), #92, .T. );
#44 = PRESENTATION_STYLE_ASSIGNMENT( ( #93 ) );
#45 = ADVANCED_FACE( '', ( #94 ), #95, .T. );
#46 = PRESENTATION_STYLE_ASSIGNMENT( ( #96 ) );
#47 = ADVANCED_FACE( '', ( #97 ), #98, .T. );
#48 = PRESENTATION_STYLE_ASSIGNMENT( ( #99 ) );
#49 = ADVANCED_FACE( '', ( #100, #101 ), #102, .T. );
#50 = PRESENTATION_STYLE_ASSIGNMENT( ( #103 ) );
#51 = ADVANCED_FACE( '', ( #104 ), #105, .T. );
#52 = PRESENTATION_STYLE_ASSIGNMENT( ( #106 ) );
#53 = ADVANCED_FACE( '', ( #107, #108 ), #109, .T. );
#54 = PRESENTATION_STYLE_ASSIGNMENT( ( #110 ) );
#55 = ADVANCED_FACE( '', ( #111, #112 ), #113, .T. );
#56 = PRESENTATION_STYLE_ASSIGNMENT( ( #114 ) );
#57 = ADVANCED_FACE( '', ( #115 ), #116, .F. );
#58 = PRESENTATION_STYLE_ASSIGNMENT( ( #117 ) );
#59 = ADVANCED_FACE( '', ( #118 ), #119, .T. );
#60 = PRESENTATION_STYLE_ASSIGNMENT( ( #120 ) );
#61 = ADVANCED_FACE( '', ( #121, #122 ), #123, .T. );
#62 = PRODUCT( '_K0391.10X55', '_K0391.10X55', 'PART-_K0391.10X55-DESC', ( #124 ) );
#63 = PRODUCT_DEFINITION( 'NONE', 'NONE', #125, #2 );
#64 = MANIFOLD_SOLID_BREP( '_K0391.10X55', #126 );
#65 = AXIS2_PLACEMENT_3D( '', #127, #128, #129 );
#68 = LENGTH_MEASURE_WITH_UNIT( LENGTH_MEASURE( 1.00000000000000 ), #130 );
#71 = DIMENSIONAL_EXPONENTS( 1.00000000000000, 0.000000000000000, 0.000000000000000, 0.000000000000000, 0.000000000000000, 0.000000000000000, 0.000000000000000 );
#73 = DIMENSIONAL_EXPONENTS( 0.000000000000000, 0.000000000000000, 0.000000000000000, 0.000000000000000, 0.000000000000000, 0.000000000000000, 0.000000000000000 );
#79 = SURFACE_STYLE_USAGE( .BOTH., #131 );
#80 = FACE_OUTER_BOUND( '', #132, .T. );
#81 = FACE_BOUND( '', #133, .T. );
#82 = PLANE( '', #134 );
#83 = SURFACE_STYLE_USAGE( .BOTH., #135 );
#84 = FACE_OUTER_BOUND( '', #136, .T. );
#85 = PLANE( '', #137 );
#86 = SURFACE_STYLE_USAGE( .BOTH., #138 );
#87 = FACE_BOUND( '', #139, .T. );
#88 = FACE_OUTER_BOUND( '', #140, .T. );
#89 = CONICAL_SURFACE( '', #141, 5.00000000000000, 0.771314587600000 );
#90 = SURFACE_STYLE_USAGE( .BOTH., #142 );
#91 = FACE_OUTER_BOUND( '', #143, .T. );
#92 = PLANE( '', #144 );
#93 = SURFACE_STYLE_USAGE( .BOTH., #145 );
#94 = FACE_OUTER_BOUND( '', #146, .T. );
#95 = PLANE( '', #147 );
#96 = SURFACE_STYLE_USAGE( .BOTH., #148 );
#97 = FACE_OUTER_BOUND( '', #149, .T. );
#98 = PLANE( '', #150 );
#99 = SURFACE_STYLE_USAGE( .BOTH., #151 );
#100 = FACE_OUTER_BOUND( '', #152, .T. );
#101 = FACE_BOUND( '', #153, .T. );
#102 = CONICAL_SURFACE( '', #154, 4.08000000000000, 0.785398163400000 );
#103 = SURFACE_STYLE_USAGE( .BOTH., #155 );
#104 = FACE_OUTER_BOUND( '', #156, .T. );
#105 = PLANE( '', #157 );
#106 = SURFACE_STYLE_USAGE( .BOTH., #158 );
#107 = FACE_OUTER_BOUND( '', #159, .T. );
#108 = FACE_OUTER_BOUND( '', #160, .T. );
#109 = CYLINDRICAL_SURFACE( '', #161, 5.00000000000000 );
#110 = SURFACE_STYLE_USAGE( .BOTH., #162 );
#111 = FACE_BOUND( '', #163, .T. );
#112 = FACE_OUTER_BOUND( '', #164, .T. );
#113 = SPHERICAL_SURFACE( '', #165, 4.00000000000000 );
#114 = SURFACE_STYLE_USAGE( .BOTH., #166 );
#115 = FACE_OUTER_BOUND( '', #167, .T. );
#116 = PLANE( '', #168 );
#117 = SURFACE_STYLE_USAGE( .BOTH., #169 );
#118 = FACE_OUTER_BOUND( '', #170, .T. );
#119 = PLANE( '', #171 );
#120 = SURFACE_STYLE_USAGE( .BOTH., #172 );
#121 = FACE_OUTER_BOUND( '', #173, .T. );
#122 = FACE_OUTER_BOUND( '', #174, .T. );
#123 = CYLINDRICAL_SURFACE( '', #175, 3.25000000000000 );
#124 = PRODUCT_CONTEXT( '', #23, 'mechanical' );
#125 = PRODUCT_DEFINITION_FORMATION_WITH_SPECIFIED_SOURCE( ' ', 'NONE', #62, .NOT_KNOWN. );
#126 = CLOSED_SHELL( '', ( #49, #37, #59, #51, #39, #55, #61, #41, #53, #45, #43, #47, #57 ) );
#127 = CARTESIAN_POINT( '', ( 0.000000000000000, 0.000000000000000, 0.000000000000000 ) );
#128 = DIRECTION( '', ( 0.000000000000000, 0.000000000000000, 1.00000000000000 ) );
#129 = DIRECTION( '', ( 1.00000000000000, 0.000000000000000, 0.000000000000000 ) );
#130 =  ( LENGTH_UNIT(  )NAMED_UNIT( #71 )SI_UNIT( .MILLI., .METRE. ) );
#131 = SURFACE_SIDE_STYLE( '', ( #177 ) );
#132 = EDGE_LOOP( '', ( #178 ) );
#133 = EDGE_LOOP( '', ( #179, #180, #181, #182, #183, #184 ) );
#134 = AXIS2_PLACEMENT_3D( '', #185, #186, #187 );
#135 = SURFACE_SIDE_STYLE( '', ( #188 ) );
#136 = EDGE_LOOP( '', ( #189, #190, #191, #192 ) );
#137 = AXIS2_PLACEMENT_3D( '', #193, #194, #195 );
#138 = SURFACE_SIDE_STYLE( '', ( #196 ) );
#139 = EDGE_LOOP( '', ( #197 ) );
#140 = EDGE_LOOP( '', ( #198 ) );
#141 = AXIS2_PLACEMENT_3D( '', #199, #200, #201 );
#142 = SURFACE_SIDE_STYLE( '', ( #202 ) );
#143 = EDGE_LOOP( '', ( #203, #204, #205, #206 ) );
#144 = AXIS2_PLACEMENT_3D( '', #207, #208, #209 );
#145 = SURFACE_SIDE_STYLE( '', ( #210 ) );
#146 = EDGE_LOOP( '', ( #211, #212, #213, #214 ) );
#147 = AXIS2_PLACEMENT_3D( '', #215, #216, #217 );
#148 = SURFACE_SIDE_STYLE( '', ( #218 ) );
#149 = EDGE_LOOP( '', ( #219, #220, #221, #222 ) );
#150 = AXIS2_PLACEMENT_3D( '', #223, #224, #225 );
#151 = SURFACE_SIDE_STYLE( '', ( #226 ) );
#152 = EDGE_LOOP( '', ( #227 ) );
#153 = EDGE_LOOP( '', ( #228 ) );
#154 = AXIS2_PLACEMENT_3D( '', #229, #230, #231 );
#155 = SURFACE_SIDE_STYLE( '', ( #232 ) );
#156 = EDGE_LOOP( '', ( #233, #234, #235, #236 ) );
#157 = AXIS2_PLACEMENT_3D( '', #237, #238, #239 );
#158 = SURFACE_SIDE_STYLE( '', ( #240 ) );
#159 = EDGE_LOOP( '', ( #241 ) );
#160 = EDGE_LOOP( '', ( #242 ) );
#161 = AXIS2_PLACEMENT_3D( '', #243, #244, #245 );
#162 = SURFACE_SIDE_STYLE( '', ( #246 ) );
#163 = VERTEX_LOOP( '', #247 );
#164 = EDGE_LOOP( '', ( #248 ) );
#165 = AXIS2_PLACEMENT_3D( '', #249, #250, #251 );
#166 = SURFACE_SIDE_STYLE( '', ( #252 ) );
#167 = EDGE_LOOP( '', ( #253, #254, #255, #256, #257, #258 ) );
#168 = AXIS2_PLACEMENT_3D( '', #259, #260, #261 );
#169 = SURFACE_SIDE_STYLE( '', ( #262 ) );
#170 = EDGE_LOOP( '', ( #263, #264, #265, #266 ) );
#171 = AXIS2_PLACEMENT_3D( '', #267, #268, #269 );
#172 = SURFACE_SIDE_STYLE( '', ( #270 ) );
#173 = EDGE_LOOP( '', ( #271 ) );
#174 = EDGE_LOOP( '', ( #272 ) );
#175 = AXIS2_PLACEMENT_3D( '', #273, #274, #275 );
#177 = SURFACE_STYLE_FILL_AREA( #276 );
#178 = ORIENTED_EDGE( '', *, *, #277, .F. );
#179 = ORIENTED_EDGE( '', *, *, #278, .T. );
#180 = ORIENTED_EDGE( '', *, *, #279, .T. );
#181 = ORIENTED_EDGE( '', *, *, #280, .T. );
#182 = ORIENTED_EDGE( '', *, *, #281, .T. );
#183 = ORIENTED_EDGE( '', *, *, #282, .T. );
#184 = ORIENTED_EDGE( '', *, *, #283, .T. );
#185 = CARTESIAN_POINT( '', ( 0.000000000000000, 0.000000000000000, 0.000000000000000 ) );
#186 = DIRECTION( '', ( 1.00000000000000, 0.000000000000000, -0.000000000000000 ) );
#187 = DIRECTION( '', ( -0.000000000000000, 0.000000000000000, -1.00000000000000 ) );
#188 = SURFACE_STYLE_FILL_AREA( #284 );
#189 = ORIENTED_EDGE( '', *, *, #278, .F. );
#190 = ORIENTED_EDGE( '', *, *, #285, .F. );
#191 = ORIENTED_EDGE( '', *, *, #286, .T. );
#192 = ORIENTED_EDGE( '', *, *, #287, .T. );
#193 = CARTESIAN_POINT( '', ( 5.00000000000000, 1.44337567297406, 2.50000000000000 ) );
#194 = DIRECTION( '', ( 0.000000000000000, 0.000000000000000, -1.00000000000000 ) );
#195 = DIRECTION( '', ( -1.00000000000000, 0.000000000000000, 0.000000000000000 ) );
#196 = SURFACE_STYLE_FILL_AREA( #288 );
#197 = ORIENTED_EDGE( '', *, *, #289, .F. );
#198 = ORIENTED_EDGE( '', *, *, #290, .T. );
#199 = CARTESIAN_POINT( '', ( 46.0000000000000, 0.000000000000000, 0.000000000000000 ) );
#200 = DIRECTION( '', ( -1.00000000000000, 0.000000000000000, -0.000000000000000 ) );
#201 = DIRECTION( '', ( 0.000000000000000, 0.000000000000000, 1.00000000000000 ) );
#202 = SURFACE_STYLE_FILL_AREA( #291 );
#203 = ORIENTED_EDGE( '', *, *, #282, .F. );
#204 = ORIENTED_EDGE( '', *, *, #292, .F. );
#205 = ORIENTED_EDGE( '', *, *, #293, .T. );
#206 = ORIENTED_EDGE( '', *, *, #294, .T. );
#207 = CARTESIAN_POINT( '', ( 5.00000000000000, 1.44337567297406, -2.50000000000000 ) );
#208 = DIRECTION( '', ( 0.000000000000000, -0.866025403784439, 0.500000000000000 ) );
#209 = DIRECTION( '', ( 0.000000000000000, -0.500000000000000, -0.866025403784439 ) );
#210 = SURFACE_STYLE_FILL_AREA( #295 );
#211 = ORIENTED_EDGE( '', *, *, #281, .F. );
#212 = ORIENTED_EDGE( '', *, *, #296, .F. );
#213 = ORIENTED_EDGE( '', *, *, #297, .T. );
#214 = ORIENTED_EDGE( '', *, *, #292, .T. );
#215 = CARTESIAN_POINT( '', ( 5.00000000000000, -1.44337567297406, -2.50000000000000 ) );
#216 = DIRECTION( '', ( 0.000000000000000, 0.000000000000000, 1.00000000000000 ) );
#217 = DIRECTION( '', ( 1.00000000000000, 0.000000000000000, -0.000000000000000 ) );
#218 = SURFACE_STYLE_FILL_AREA( #298 );
#219 = ORIENTED_EDGE( '', *, *, #283, .F. );
#220 = ORIENTED_EDGE( '', *, *, #294, .F. );
#221 = ORIENTED_EDGE( '', *, *, #299, .T. );
#222 = ORIENTED_EDGE( '', *, *, #285, .T. );
#223 = CARTESIAN_POINT( '', ( 5.00000000000000, 2.88675134594813, 0.000000000000000 ) );
#224 = DIRECTION( '', ( 0.000000000000000, -0.866025403784439, -0.500000000000000 ) );
#225 = DIRECTION( '', ( 0.000000000000000, 0.500000000000000, -0.866025403784439 ) );
#226 = SURFACE_STYLE_FILL_AREA( #300 );
#227 = ORIENTED_EDGE( '', *, *, #301, .F. );
#228 = ORIENTED_EDGE( '', *, *, #277, .T. );
#229 = CARTESIAN_POINT( '', ( 0.000000000000000, 0.000000000000000, 0.000000000000000 ) );
#230 = DIRECTION( '', ( 1.00000000000000, -0.000000000000000, -0.000000000000000 ) );
#231 = DIRECTION( '', ( -0.000000000000000, 0.000000000000000, -1.00000000000000 ) );
#232 = SURFACE_STYLE_FILL_AREA( #302 );
#233 = ORIENTED_EDGE( '', *, *, #280, .F. );
#234 = ORIENTED_EDGE( '', *, *, #303, .F. );
#235 = ORIENTED_EDGE( '', *, *, #304, .T. );
#236 = ORIENTED_EDGE( '', *, *, #296, .T. );
#237 = CARTESIAN_POINT( '', ( 5.00000000000000, -2.88675134594813, 0.000000000000000 ) );
#238 = DIRECTION( '', ( -0.000000000000000, 0.866025403784439, 0.500000000000000 ) );
#239 = DIRECTION( '', ( 0.000000000000000, -0.500000000000000, 0.866025403784439 ) );
#240 = SURFACE_STYLE_FILL_AREA( #305 );
#241 = ORIENTED_EDGE( '', *, *, #290, .F. );
#242 = ORIENTED_EDGE( '', *, *, #301, .T. );
#243 = CARTESIAN_POINT( '', ( 55.0000000000000, 0.000000000000000, 0.000000000000000 ) );
#244 = DIRECTION( '', ( -1.00000000000000, -0.000000000000000, 0.000000000000000 ) );
#245 = DIRECTION( '', ( -0.000000000000000, 0.000000000000000, -1.00000000000000 ) );
#246 = SURFACE_STYLE_FILL_AREA( #306 );
#247 = VERTEX_POINT( '', #307 );
#248 = ORIENTED_EDGE( '', *, *, #308, .T. );
#249 = CARTESIAN_POINT( '', ( 51.0000000000000, 4.33680868994202E-16, 0.000000000000000 ) );
#250 = DIRECTION( '', ( 1.00000000000000, 0.000000000000000, 0.000000000000000 ) );
#251 = DIRECTION( '', ( 0.000000000000000, -1.00000000000000, 0.000000000000000 ) );
#252 = SURFACE_STYLE_FILL_AREA( #309 );
#253 = ORIENTED_EDGE( '', *, *, #286, .F. );
#254 = ORIENTED_EDGE( '', *, *, #299, .F. );
#255 = ORIENTED_EDGE( '', *, *, #293, .F. );
#256 = ORIENTED_EDGE( '', *, *, #297, .F. );
#257 = ORIENTED_EDGE( '', *, *, #304, .F. );
#258 = ORIENTED_EDGE( '', *, *, #310, .F. );
#259 = CARTESIAN_POINT( '', ( 5.00000000000000, 0.000000000000000, 0.000000000000000 ) );
#260 = DIRECTION( '', ( 1.00000000000000, 0.000000000000000, 0.000000000000000 ) );
#261 = DIRECTION( '', ( 0.000000000000000, 0.000000000000000, -1.00000000000000 ) );
#262 = SURFACE_STYLE_FILL_AREA( #311 );
#263 = ORIENTED_EDGE( '', *, *, #279, .F. );
#264 = ORIENTED_EDGE( '', *, *, #287, .F. );
#265 = ORIENTED_EDGE( '', *, *, #310, .T. );
#266 = ORIENTED_EDGE( '', *, *, #303, .T. );
#267 = CARTESIAN_POINT( '', ( 5.00000000000000, -1.44337567297406, 2.50000000000000 ) );
#268 = DIRECTION( '', ( 0.000000000000000, 0.866025403784439, -0.500000000000000 ) );
#269 = DIRECTION( '', ( 0.000000000000000, 0.500000000000000, 0.866025403784439 ) );
#270 = SURFACE_STYLE_FILL_AREA( #312 );
#271 = ORIENTED_EDGE( '', *, *, #308, .F. );
#272 = ORIENTED_EDGE( '', *, *, #289, .T. );
#273 = CARTESIAN_POINT( '', ( 55.0000000000000, 0.000000000000000, 0.000000000000000 ) );
#274 = DIRECTION( '', ( -1.00000000000000, -0.000000000000000, 0.000000000000000 ) );
#275 = DIRECTION( '', ( -0.000000000000000, 0.000000000000000, -1.00000000000000 ) );
#276 = FILL_AREA_STYLE( '', ( #313 ) );
#277 = EDGE_CURVE( '', #314, #314, #315, .T. );
#278 = EDGE_CURVE( '', #316, #317, #318, .T. );
#279 = EDGE_CURVE( '', #317, #319, #320, .T. );
#280 = EDGE_CURVE( '', #319, #321, #322, .T. );
#281 = EDGE_CURVE( '', #321, #323, #324, .T. );
#282 = EDGE_CURVE( '', #323, #325, #326, .T. );
#283 = EDGE_CURVE( '', #325, #316, #327, .T. );
#284 = FILL_AREA_STYLE( '', ( #328 ) );
#285 = EDGE_CURVE( '', #329, #316, #330, .T. );
#286 = EDGE_CURVE( '', #329, #331, #332, .T. );
#287 = EDGE_CURVE( '', #331, #317, #333, .T. );
#288 = FILL_AREA_STYLE( '', ( #334 ) );
#289 = EDGE_CURVE( '', #335, #335, #336, .T. );
#290 = EDGE_CURVE( '', #337, #337, #338, .T. );
#291 = FILL_AREA_STYLE( '', ( #339 ) );
#292 = EDGE_CURVE( '', #340, #323, #341, .T. );
#293 = EDGE_CURVE( '', #340, #342, #343, .T. );
#294 = EDGE_CURVE( '', #342, #325, #344, .T. );
#295 = FILL_AREA_STYLE( '', ( #345 ) );
#296 = EDGE_CURVE( '', #346, #321, #347, .T. );
#297 = EDGE_CURVE( '', #346, #340, #348, .T. );
#298 = FILL_AREA_STYLE( '', ( #349 ) );
#299 = EDGE_CURVE( '', #342, #329, #350, .T. );
#300 = FILL_AREA_STYLE( '', ( #351 ) );
#301 = EDGE_CURVE( '', #352, #352, #353, .T. );
#302 = FILL_AREA_STYLE( '', ( #354 ) );
#303 = EDGE_CURVE( '', #355, #319, #356, .T. );
#304 = EDGE_CURVE( '', #355, #346, #357, .T. );
#305 = FILL_AREA_STYLE( '', ( #358 ) );
#306 = FILL_AREA_STYLE( '', ( #359 ) );
#307 = CARTESIAN_POINT( '', ( 55.0000000000000, 1.88751509164731E-16, 0.000000000000000 ) );
#308 = EDGE_CURVE( '', #360, #360, #361, .T. );
#309 = FILL_AREA_STYLE( '', ( #362 ) );
#310 = EDGE_CURVE( '', #331, #355, #363, .T. );
#311 = FILL_AREA_STYLE( '', ( #364 ) );
#312 = FILL_AREA_STYLE( '', ( #365 ) );
#313 = FILL_AREA_STYLE_COLOUR( '', #366 );
#314 = VERTEX_POINT( '', #367 );
#315 = CIRCLE( '', #368, 4.08000000000000 );
#316 = VERTEX_POINT( '', #369 );
#317 = VERTEX_POINT( '', #370 );
#318 = LINE( '', #371, #372 );
#319 = VERTEX_POINT( '', #373 );
#320 = LINE( '', #374, #375 );
#321 = VERTEX_POINT( '', #376 );
#322 = LINE( '', #377, #378 );
#323 = VERTEX_POINT( '', #379 );
#324 = LINE( '', #380, #381 );
#325 = VERTEX_POINT( '', #382 );
#326 = LINE( '', #383, #384 );
#327 = LINE( '', #385, #386 );
#328 = FILL_AREA_STYLE_COLOUR( '', #387 );
#329 = VERTEX_POINT( '', #388 );
#330 = LINE( '', #389, #390 );
#331 = VERTEX_POINT( '', #391 );
#332 = LINE( '', #392, #393 );
#333 = LINE( '', #394, #395 );
#334 = FILL_AREA_STYLE_COLOUR( '', #396 );
#335 = VERTEX_POINT( '', #397 );
#336 = CIRCLE( '', #398, 3.25000000000000 );
#337 = VERTEX_POINT( '', #399 );
#338 = CIRCLE( '', #400, 5.00000000000000 );
#339 = FILL_AREA_STYLE_COLOUR( '', #401 );
#340 = VERTEX_POINT( '', #402 );
#341 = LINE( '', #403, #404 );
#342 = VERTEX_POINT( '', #405 );
#343 = LINE( '', #406, #407 );
#344 = LINE( '', #408, #409 );
#345 = FILL_AREA_STYLE_COLOUR( '', #410 );
#346 = VERTEX_POINT( '', #411 );
#347 = LINE( '', #412, #413 );
#348 = LINE( '', #414, #415 );
#349 = FILL_AREA_STYLE_COLOUR( '', #416 );
#350 = LINE( '', #417, #418 );
#351 = FILL_AREA_STYLE_COLOUR( '', #419 );
#352 = VERTEX_POINT( '', #420 );
#353 = CIRCLE( '', #421, 5.00000000000000 );
#354 = FILL_AREA_STYLE_COLOUR( '', #422 );
#355 = VERTEX_POINT( '', #423 );
#356 = LINE( '', #424, #425 );
#357 = LINE( '', #426, #427 );
#358 = FILL_AREA_STYLE_COLOUR( '', #428 );
#359 = FILL_AREA_STYLE_COLOUR( '', #429 );
#360 = VERTEX_POINT( '', #430 );
#361 = CIRCLE( '', #431, 3.25000000000000 );
#362 = FILL_AREA_STYLE_COLOUR( '', #432 );
#363 = LINE( '', #433, #434 );
#364 = FILL_AREA_STYLE_COLOUR( '', #435 );
#365 = FILL_AREA_STYLE_COLOUR( '', #436 );
#366 = COLOUR_RGB( '', 0.689999997600000, 0.689999997600000, 0.689999997600000 );
#367 = CARTESIAN_POINT( '', ( 0.000000000000000, 0.000000000000000, -4.08000000000000 ) );
#368 = AXIS2_PLACEMENT_3D( '', #437, #438, #439 );
#369 = CARTESIAN_POINT( '', ( 0.000000000000000, 1.44337567297406, 2.50000000000000 ) );
#370 = CARTESIAN_POINT( '', ( 0.000000000000000, -1.44337567297406, 2.50000000000000 ) );
#371 = CARTESIAN_POINT( '', ( 0.000000000000000, 1.44337567297406, 2.50000000000000 ) );
#372 = VECTOR( '', #440, 1000.00000000000 );
#373 = CARTESIAN_POINT( '', ( 0.000000000000000, -2.88675134594813, 0.000000000000000 ) );
#374 = CARTESIAN_POINT( '', ( 0.000000000000000, -1.44337567297406, 2.50000000000000 ) );
#375 = VECTOR( '', #441, 1000.00000000000 );
#376 = CARTESIAN_POINT( '', ( 0.000000000000000, -1.44337567297406, -2.50000000000000 ) );
#377 = CARTESIAN_POINT( '', ( 0.000000000000000, -2.88675134594813, 0.000000000000000 ) );
#378 = VECTOR( '', #442, 1000.00000000000 );
#379 = CARTESIAN_POINT( '', ( 0.000000000000000, 1.44337567297406, -2.50000000000000 ) );
#380 = CARTESIAN_POINT( '', ( 0.000000000000000, -1.44337567297406, -2.50000000000000 ) );
#381 = VECTOR( '', #443, 1000.00000000000 );
#382 = CARTESIAN_POINT( '', ( 0.000000000000000, 2.88675134594813, 0.000000000000000 ) );
#383 = CARTESIAN_POINT( '', ( 0.000000000000000, 1.44337567297406, -2.50000000000000 ) );
#384 = VECTOR( '', #444, 1000.00000000000 );
#385 = CARTESIAN_POINT( '', ( 0.000000000000000, 2.88675134594813, 0.000000000000000 ) );
#386 = VECTOR( '', #445, 1000.00000000000 );
#387 = COLOUR_RGB( '', 0.689999997600000, 0.689999997600000, 0.689999997600000 );
#388 = CARTESIAN_POINT( '', ( 5.00000000000000, 1.44337567297406, 2.50000000000000 ) );
#389 = CARTESIAN_POINT( '', ( 5.00000000000000, 1.44337567297406, 2.50000000000000 ) );
#390 = VECTOR( '', #446, 1000.00000000000 );
#391 = CARTESIAN_POINT( '', ( 5.00000000000000, -1.44337567297406, 2.50000000000000 ) );
#392 = CARTESIAN_POINT( '', ( 5.00000000000000, 1.44337567297406, 2.50000000000000 ) );
#393 = VECTOR( '', #447, 1000.00000000000 );
#394 = CARTESIAN_POINT( '', ( 5.00000000000000, -1.44337567297406, 2.50000000000000 ) );
#395 = VECTOR( '', #448, 1000.00000000000 );
#396 = COLOUR_RGB( '', 0.689999997600000, 0.689999997600000, 0.689999997600000 );
#397 = CARTESIAN_POINT( '', ( 47.8000000000000, 0.000000000000000, -3.25000000000000 ) );
#398 = AXIS2_PLACEMENT_3D( '', #449, #450, #451 );
#399 = CARTESIAN_POINT( '', ( 46.0000000000000, 0.000000000000000, -5.00000000000001 ) );
#400 = AXIS2_PLACEMENT_3D( '', #452, #453, #454 );
#401 = COLOUR_RGB( '', 0.689999997600000, 0.689999997600000, 0.689999997600000 );
#402 = CARTESIAN_POINT( '', ( 5.00000000000000, 1.44337567297406, -2.50000000000000 ) );
#403 = CARTESIAN_POINT( '', ( 5.00000000000000, 1.44337567297406, -2.50000000000000 ) );
#404 = VECTOR( '', #455, 1000.00000000000 );
#405 = CARTESIAN_POINT( '', ( 5.00000000000000, 2.88675134594813, 0.000000000000000 ) );
#406 = CARTESIAN_POINT( '', ( 5.00000000000000, 1.44337567297406, -2.50000000000000 ) );
#407 = VECTOR( '', #456, 1000.00000000000 );
#408 = CARTESIAN_POINT( '', ( 5.00000000000000, 2.88675134594813, 0.000000000000000 ) );
#409 = VECTOR( '', #457, 1000.00000000000 );
#410 = COLOUR_RGB( '', 0.689999997600000, 0.689999997600000, 0.689999997600000 );
#411 = CARTESIAN_POINT( '', ( 5.00000000000000, -1.44337567297406, -2.50000000000000 ) );
#412 = CARTESIAN_POINT( '', ( 5.00000000000000, -1.44337567297406, -2.50000000000000 ) );
#413 = VECTOR( '', #458, 1000.00000000000 );
#414 = CARTESIAN_POINT( '', ( 5.00000000000000, -1.44337567297406, -2.50000000000000 ) );
#415 = VECTOR( '', #459, 1000.00000000000 );
#416 = COLOUR_RGB( '', 0.689999997600000, 0.689999997600000, 0.689999997600000 );
#417 = CARTESIAN_POINT( '', ( 5.00000000000000, 2.88675134594813, 0.000000000000000 ) );
#418 = VECTOR( '', #460, 1000.00000000000 );
#419 = COLOUR_RGB( '', 0.689999997600000, 0.689999997600000, 0.689999997600000 );
#420 = CARTESIAN_POINT( '', ( 0.920000000000004, 0.000000000000000, -5.00000000000001 ) );
#421 = AXIS2_PLACEMENT_3D( '', #461, #462, #463 );
#422 = COLOUR_RGB( '', 0.689999997600000, 0.689999997600000, 0.689999997600000 );
#423 = CARTESIAN_POINT( '', ( 5.00000000000000, -2.88675134594813, 0.000000000000000 ) );
#424 = CARTESIAN_POINT( '', ( 5.00000000000000, -2.88675134594813, 0.000000000000000 ) );
#425 = VECTOR( '', #464, 1000.00000000000 );
#426 = CARTESIAN_POINT( '', ( 5.00000000000000, -2.88675134594813, 0.000000000000000 ) );
#427 = VECTOR( '', #465, 1000.00000000000 );
#428 = COLOUR_RGB( '', 0.689999997600000, 0.689999997600000, 0.689999997600000 );
#429 = COLOUR_RGB( '', 0.689999997600000, 0.689999997600000, 0.689999997600000 );
#430 = CARTESIAN_POINT( '', ( 48.6681552367278, 0.000000000000000, -3.25000000000000 ) );
#431 = AXIS2_PLACEMENT_3D( '', #466, #467, #468 );
#432 = COLOUR_RGB( '', 0.689999997600000, 0.689999997600000, 0.689999997600000 );
#433 = CARTESIAN_POINT( '', ( 5.00000000000000, -1.44337567297406, 2.50000000000000 ) );
#434 = VECTOR( '', #469, 1000.00000000000 );
#435 = COLOUR_RGB( '', 0.689999997600000, 0.689999997600000, 0.689999997600000 );
#436 = COLOUR_RGB( '', 0.689999997600000, 0.689999997600000, 0.689999997600000 );
#437 = CARTESIAN_POINT( '', ( 0.000000000000000, 0.000000000000000, 0.000000000000000 ) );
#438 = DIRECTION( '', ( 1.00000000000000, 0.000000000000000, -0.000000000000000 ) );
#439 = DIRECTION( '', ( -0.000000000000000, 0.000000000000000, -1.00000000000000 ) );
#440 = DIRECTION( '', ( 0.000000000000000, -1.00000000000000, 0.000000000000000 ) );
#441 = DIRECTION( '', ( 0.000000000000000, -0.500000000000000, -0.866025403784439 ) );
#442 = DIRECTION( '', ( 0.000000000000000, 0.500000000000000, -0.866025403784439 ) );
#443 = DIRECTION( '', ( 0.000000000000000, 1.00000000000000, 0.000000000000000 ) );
#444 = DIRECTION( '', ( 0.000000000000000, 0.500000000000000, 0.866025403784439 ) );
#445 = DIRECTION( '', ( 0.000000000000000, -0.500000000000000, 0.866025403784439 ) );
#446 = DIRECTION( '', ( -1.00000000000000, -0.000000000000000, -0.000000000000000 ) );
#447 = DIRECTION( '', ( 0.000000000000000, -1.00000000000000, 0.000000000000000 ) );
#448 = DIRECTION( '', ( -1.00000000000000, -0.000000000000000, -0.000000000000000 ) );
#449 = CARTESIAN_POINT( '', ( 47.8000000000000, 0.000000000000000, 0.000000000000000 ) );
#450 = DIRECTION( '', ( 1.00000000000000, 0.000000000000000, -0.000000000000000 ) );
#451 = DIRECTION( '', ( -0.000000000000000, 0.000000000000000, -1.00000000000000 ) );
#452 = CARTESIAN_POINT( '', ( 46.0000000000000, 0.000000000000000, 0.000000000000000 ) );
#453 = DIRECTION( '', ( 1.00000000000000, 0.000000000000000, -0.000000000000000 ) );
#454 = DIRECTION( '', ( -0.000000000000000, 0.000000000000000, -1.00000000000000 ) );
#455 = DIRECTION( '', ( -1.00000000000000, -0.000000000000000, -0.000000000000000 ) );
#456 = DIRECTION( '', ( 0.000000000000000, 0.500000000000000, 0.866025403784439 ) );
#457 = DIRECTION( '', ( -1.00000000000000, -0.000000000000000, -0.000000000000000 ) );
#458 = DIRECTION( '', ( -1.00000000000000, -0.000000000000000, -0.000000000000000 ) );
#459 = DIRECTION( '', ( 0.000000000000000, 1.00000000000000, 0.000000000000000 ) );
#460 = DIRECTION( '', ( 0.000000000000000, -0.500000000000000, 0.866025403784439 ) );
#461 = CARTESIAN_POINT( '', ( 0.920000000000004, 0.000000000000000, 0.000000000000000 ) );
#462 = DIRECTION( '', ( 1.00000000000000, 0.000000000000000, -0.000000000000000 ) );
#463 = DIRECTION( '', ( -0.000000000000000, 0.000000000000000, -1.00000000000000 ) );
#464 = DIRECTION( '', ( -1.00000000000000, -0.000000000000000, -0.000000000000000 ) );
#465 = DIRECTION( '', ( 0.000000000000000, 0.500000000000000, -0.866025403784439 ) );
#466 = CARTESIAN_POINT( '', ( 48.6681552367278, 0.000000000000000, 0.000000000000000 ) );
#467 = DIRECTION( '', ( 1.00000000000000, 0.000000000000000, -0.000000000000000 ) );
#468 = DIRECTION( '', ( -0.000000000000000, 0.000000000000000, -1.00000000000000 ) );
#469 = DIRECTION( '', ( 0.000000000000000, -0.500000000000000, -0.866025403784439 ) );
ENDSEC;
END-ISO-10303-21;
